ISO-10303-21;
HEADER;
FILE_DESCRIPTION (( 'STEP AP214' ),
    '1' );
FILE_NAME ('900.405.004.000.STEP',
    '2024-06-20T06:40:06',
    ( '' ),
    ( '' ),
    'SwSTEP 2.0',
    'SolidWorks 2022',
    '' );
FILE_SCHEMA (( 'AUTOMOTIVE_DESIGN' ));
ENDSEC;

DATA;
#1 = DIRECTION ( 'NONE',  ( 0.000000000000000000, 0.000000000000000000, -1.000000000000000000 ) ) ;
#2 = AXIS2_PLACEMENT_3D ( 'NONE', #196, #254, #1 ) ;
#3 = CARTESIAN_POINT ( 'NONE',  ( -0.1479239146981933817, 4.408728476930470165E-16, 3.599999999999999201 ) ) ;
#4 = DIRECTION ( 'NONE',  ( -1.000000000000000000, 0.000000000000000000, 0.000000000000000000 ) ) ;
#5 = ORIENTED_EDGE ( 'NONE', *, *, #214, .F. ) ;
#6 = CIRCLE ( 'NONE', #178, 3.599999999999998757 ) ;
#7 = CARTESIAN_POINT ( 'NONE',  ( 7.206746031746035897, 0.000000000000000000, 0.000000000000000000 ) ) ;
#8 = EDGE_CURVE ( 'NONE', #223, #72, #6, .T. ) ;
#9 = PRODUCT_CONTEXT ( 'NONE', #40, 'mechanical' ) ;
#10 = DIRECTION ( 'NONE',  ( 0.000000000000000000, 0.000000000000000000, -1.000000000000000000 ) ) ;
#11 = ORIENTED_EDGE ( 'NONE', *, *, #98, .F. ) ;
#12 = EDGE_LOOP ( 'NONE', ( #52, #228, #185, #149 ) ) ;
#13 = DIRECTION ( 'NONE',  ( 0.000000000000000000, 0.000000000000000000, -1.000000000000000000 ) ) ;
#14 = CYLINDRICAL_SURFACE ( 'NONE', #143, 2.149999999999999023 ) ;
#15 =( NAMED_UNIT ( * ) PLANE_ANGLE_UNIT ( ) SI_UNIT ( $, .RADIAN. ) );
#16 = AXIS2_PLACEMENT_3D ( 'NONE', #233, #42, #114 ) ;
#17 = PRODUCT_DEFINITION_FORMATION_WITH_SPECIFIED_SOURCE ( 'ANY', '', #144, .NOT_KNOWN. ) ;
#18 = APPLICATION_CONTEXT ( 'automotive_design' ) ;
#19 = FACE_OUTER_BOUND ( 'NONE', #73, .T. ) ;
#20 = DIRECTION ( 'NONE',  ( 1.000000000000000000, -0.000000000000000000, -0.000000000000000000 ) ) ;
#21 = PRESENTATION_STYLE_ASSIGNMENT (( #80 ) ) ;
#22 =( GEOMETRIC_REPRESENTATION_CONTEXT ( 3 ) GLOBAL_UNCERTAINTY_ASSIGNED_CONTEXT ( ( #51 ) ) GLOBAL_UNIT_ASSIGNED_CONTEXT ( ( #191, #15, #215 ) ) REPRESENTATION_CONTEXT ( 'NONE', 'WORKASPACE' ) );
#23 = DIRECTION ( 'NONE',  ( 0.000000000000000000, 0.000000000000000000, -1.000000000000000000 ) ) ;
#24 = EDGE_CURVE ( 'NONE', #223, #57, #110, .T. ) ;
#25 = ORIENTED_EDGE ( 'NONE', *, *, #74, .F. ) ;
#26 = FACE_OUTER_BOUND ( 'NONE', #92, .T. ) ;
#27 = CARTESIAN_POINT ( 'NONE',  ( 0.000000000000000000, 0.000000000000000000, 0.000000000000000000 ) ) ;
#28 = CLOSED_SHELL ( 'NONE', ( #79, #147, #222, #252, #30, #115, #206, #248 ) ) ;
#29 = CARTESIAN_POINT ( 'NONE',  ( 0.000000000000000000, 0.000000000000000000, 0.000000000000000000 ) ) ;
#30 = ADVANCED_FACE ( 'NONE', ( #35 ), #14, .F. ) ;
#31 = EDGE_CURVE ( 'NONE', #156, #199, #93, .T. ) ;
#32 = ORIENTED_EDGE ( 'NONE', *, *, #24, .T. ) ;
#33 = DIRECTION ( 'NONE',  ( 1.000000000000000000, -0.000000000000000000, -0.000000000000000000 ) ) ;
#34 = COLOUR_RGB ( '',0.7529411764705882248, 0.7529411764705882248, 0.7529411764705882248 ) ;
#35 = FACE_OUTER_BOUND ( 'NONE', #12, .T. ) ;
#36 = ORIENTED_EDGE ( 'NONE', *, *, #242, .T. ) ;
#37 = ORIENTED_EDGE ( 'NONE', *, *, #49, .F. ) ;
#38 = VECTOR ( 'NONE', #60, 1000.000000000000227 ) ;
#39 = DIRECTION ( 'NONE',  ( 0.000000000000000000, 0.000000000000000000, 1.000000000000000000 ) ) ;
#40 = APPLICATION_CONTEXT ( 'automotive_design' ) ;
#41 = EDGE_CURVE ( 'NONE', #72, #223, #128, .T. ) ;
#42 = DIRECTION ( 'NONE',  ( 1.000000000000000000, -0.000000000000000000, -0.000000000000000000 ) ) ;
#43 = DIRECTION ( 'NONE',  ( 0.000000000000000000, 0.000000000000000000, -1.000000000000000000 ) ) ;
#44 = CARTESIAN_POINT ( 'NONE',  ( 7.206746031746035897, 0.000000000000000000, 0.000000000000000000 ) ) ;
#45 = VECTOR ( 'NONE', #33, 1000.000000000000000 ) ;
#46 = FACE_OUTER_BOUND ( 'NONE', #106, .T. ) ;
#47 = ORIENTED_EDGE ( 'NONE', *, *, #31, .F. ) ;
#48 = DIRECTION ( 'NONE',  ( -0.1014897395041336331, 0.000000000000000000, 0.9948365859654454413 ) ) ;
#49 = EDGE_CURVE ( 'NONE', #199, #57, #187, .T. ) ;
#50 = CONICAL_SURFACE ( 'NONE', #188, 2.149999999999999467, 1.469131547868511856 ) ;
#51 = UNCERTAINTY_MEASURE_WITH_UNIT (LENGTH_MEASURE( 1.000000000000000082E-05 ), #191, 'distance_accuracy_value', 'NONE');
#52 = ORIENTED_EDGE ( 'NONE', *, *, #88, .F. ) ;
#53 = ORIENTED_EDGE ( 'NONE', *, *, #118, .F. ) ;
#54 = DIRECTION ( 'NONE',  ( 0.000000000000000000, 0.000000000000000000, -1.000000000000000000 ) ) ;
#55 = ORIENTED_EDGE ( 'NONE', *, *, #8, .F. ) ;
#56 = PRODUCT_DEFINITION ( 'UNKNOWN', '', #17, #249 ) ;
#57 = VERTEX_POINT ( 'NONE', #89 ) ;
#58 = CYLINDRICAL_SURFACE ( 'NONE', #121, 3.599999999999999201 ) ;
#59 = SURFACE_STYLE_FILL_AREA ( #155 ) ;
#60 = DIRECTION ( 'NONE',  ( -0.1014897395041340772, 1.218323440677263234E-16, -0.9948365859654453303 ) ) ;
#61 = DIRECTION ( 'NONE',  ( -1.000000000000000000, 0.000000000000000000, 0.000000000000000000 ) ) ;
#62 = PRODUCT_RELATED_PRODUCT_CATEGORY ( 'part', '', ( #144 ) ) ;
#63 = DIRECTION ( 'NONE',  ( 1.000000000000000000, -0.000000000000000000, -0.000000000000000000 ) ) ;
#64 = VECTOR ( 'NONE', #48, 1000.000000000000000 ) ;
#65 = MECHANICAL_DESIGN_GEOMETRIC_PRESENTATION_REPRESENTATION (  '', ( #180 ), #91 ) ;
#66 = ORIENTED_EDGE ( 'NONE', *, *, #8, .T. ) ;
#67 = SURFACE_STYLE_USAGE ( .BOTH. , #140 ) ;
#68 = DIRECTION ( 'NONE',  ( 1.000000000000000000, -0.000000000000000000, -0.000000000000000000 ) ) ;
#69 = DIRECTION ( 'NONE',  ( 1.000000000000000000, -0.000000000000000000, -0.000000000000000000 ) ) ;
#70 = DIRECTION ( 'NONE',  ( 0.000000000000000000, 0.000000000000000000, -1.000000000000000000 ) ) ;
#71 = CARTESIAN_POINT ( 'NONE',  ( 7.206746031746035897, 4.408728476930470165E-16, 3.599999999999999201 ) ) ;
#72 = VERTEX_POINT ( 'NONE', #165 ) ;
#73 = EDGE_LOOP ( 'NONE', ( #11, #105, #207, #55 ) ) ;
#74 = EDGE_CURVE ( 'NONE', #72, #199, #244, .T. ) ;
#75 = ORIENTED_EDGE ( 'NONE', *, *, #49, .T. ) ;
#76 = AXIS2_PLACEMENT_3D ( 'NONE', #102, #120, #203 ) ;
#77 = CARTESIAN_POINT ( 'NONE',  ( -0.5499999999999983791, 0.000000000000000000, 0.000000000000000000 ) ) ;
#78 = DIRECTION ( 'NONE',  ( 0.000000000000000000, 0.000000000000000000, 1.000000000000000000 ) ) ;
#79 = ADVANCED_FACE ( 'NONE', ( #236 ), #108, .T. ) ;
#80 = SURFACE_STYLE_USAGE ( .BOTH. , #136 ) ;
#81 = VECTOR ( 'NONE', #253, 1000.000000000000227 ) ;
#82 = DIRECTION ( 'NONE',  ( 1.000000000000000000, -0.000000000000000000, -0.000000000000000000 ) ) ;
#83 = CARTESIAN_POINT ( 'NONE',  ( -0.5499999999999983791, 0.000000000000000000, 0.000000000000000000 ) ) ;
#84 = CARTESIAN_POINT ( 'NONE',  ( 0.000000000000000000, 0.000000000000000000, 0.000000000000000000 ) ) ;
#85 = ADVANCED_BREP_SHAPE_REPRESENTATION ( '900.405.004.000', ( #193, #224 ), #129 ) ;
#86 = ORIENTED_EDGE ( 'NONE', *, *, #194, .T. ) ;
#87 = AXIS2_PLACEMENT_3D ( 'NONE', #113, #20, #97 ) ;
#88 = EDGE_CURVE ( 'NONE', #186, #156, #99, .T. ) ;
#89 = CARTESIAN_POINT ( 'NONE',  ( -0.1479239146981933817, 0.000000000000000000, -3.599999999999999201 ) ) ;
#90 = VERTEX_POINT ( 'NONE', #218 ) ;
#91 =( GEOMETRIC_REPRESENTATION_CONTEXT ( 3 ) GLOBAL_UNCERTAINTY_ASSIGNED_CONTEXT ( ( #227 ) ) GLOBAL_UNIT_ASSIGNED_CONTEXT ( ( #181, #159, #122 ) ) REPRESENTATION_CONTEXT ( 'NONE', 'WORKASPACE' ) );
#92 = EDGE_LOOP ( 'NONE', ( #251, #250, #225, #75 ) ) ;
#93 = LINE ( 'NONE', #169, #81 ) ;
#94 = ORIENTED_EDGE ( 'NONE', *, *, #41, .F. ) ;
#95 = CARTESIAN_POINT ( 'NONE',  ( -0.4020760853018058856, 0.000000000000000000, 0.000000000000000000 ) ) ;
#96 = FACE_OUTER_BOUND ( 'NONE', #208, .T. ) ;
#97 = DIRECTION ( 'NONE',  ( 0.000000000000000000, 0.000000000000000000, -1.000000000000000000 ) ) ;
#98 = EDGE_CURVE ( 'NONE', #90, #223, #112, .T. ) ;
#99 = LINE ( 'NONE', #173, #162 ) ;
#100 = VERTEX_POINT ( 'NONE', #237 ) ;
#101 = LINE ( 'NONE', #219, #64 ) ;
#102 = CARTESIAN_POINT ( 'NONE',  ( -0.5499999999999983791, 0.000000000000000000, 0.000000000000000000 ) ) ;
#103 = VECTOR ( 'NONE', #68, 1000.000000000000000 ) ;
#104 = APPLICATION_PROTOCOL_DEFINITION ( 'draft international standard', 'automotive_design', 1998, #40 ) ;
#105 = ORIENTED_EDGE ( 'NONE', *, *, #107, .T. ) ;
#106 = EDGE_LOOP ( 'NONE', ( #226, #247, #94, #189 ) ) ;
#107 = EDGE_CURVE ( 'NONE', #90, #186, #197, .T. ) ;
#108 = CONICAL_SURFACE ( 'NONE', #111, 2.149999999999999467, 1.469131547868511856 ) ;
#109 = CARTESIAN_POINT ( 'NONE',  ( 7.206746031746035897, 0.000000000000000000, 0.000000000000000000 ) ) ;
#110 = LINE ( 'NONE', #127, #45 ) ;
#111 = AXIS2_PLACEMENT_3D ( 'NONE', #172, #61, #39 ) ;
#112 = LINE ( 'NONE', #195, #123 ) ;
#113 = CARTESIAN_POINT ( 'NONE',  ( -0.1479239146981933817, 0.000000000000000000, 0.000000000000000000 ) ) ;
#114 = DIRECTION ( 'NONE',  ( 0.000000000000000000, 0.000000000000000000, -1.000000000000000000 ) ) ;
#115 = ADVANCED_FACE ( 'NONE', ( #19 ), #245, .F. ) ;
#116 = CIRCLE ( 'NONE', #217, 2.149999999999999467 ) ;
#117 = FILL_AREA_STYLE_COLOUR ( '', #34 ) ;
#118 = EDGE_CURVE ( 'NONE', #186, #90, #202, .T. ) ;
#119 = CYLINDRICAL_SURFACE ( 'NONE', #124, 2.149999999999999023 ) ;
#120 = DIRECTION ( 'NONE',  ( -1.000000000000000000, 0.000000000000000000, 0.000000000000000000 ) ) ;
#121 = AXIS2_PLACEMENT_3D ( 'NONE', #44, #82, #153 ) ;
#122 =( NAMED_UNIT ( * ) SI_UNIT ( $, .STERADIAN. ) SOLID_ANGLE_UNIT ( ) );
#123 = VECTOR ( 'NONE', #216, 1000.000000000000000 ) ;
#124 = AXIS2_PLACEMENT_3D ( 'NONE', #7, #69, #70 ) ;
#125 = DIRECTION ( 'NONE',  ( 1.000000000000000000, -0.000000000000000000, -0.000000000000000000 ) ) ;
#126 = ORIENTED_EDGE ( 'NONE', *, *, #160, .F. ) ;
#127 = CARTESIAN_POINT ( 'NONE',  ( 7.206746031746035897, 0.000000000000000000, -3.599999999999999201 ) ) ;
#128 = CIRCLE ( 'NONE', #139, 3.599999999999998757 ) ;
#129 =( GEOMETRIC_REPRESENTATION_CONTEXT ( 3 ) GLOBAL_UNCERTAINTY_ASSIGNED_CONTEXT ( ( #210 ) ) GLOBAL_UNIT_ASSIGNED_CONTEXT ( ( #201, #241, #158 ) ) REPRESENTATION_CONTEXT ( 'NONE', 'WORKASPACE' ) );
#130 = EDGE_LOOP ( 'NONE', ( #53, #212, #36, #5 ) ) ;
#131 = DIRECTION ( 'NONE',  ( 0.000000000000000000, 0.000000000000000000, -1.000000000000000000 ) ) ;
#132 = DIRECTION ( 'NONE',  ( 1.000000000000000000, -0.000000000000000000, -0.000000000000000000 ) ) ;
#133 = CARTESIAN_POINT ( 'NONE',  ( 7.206746031746035897, 0.000000000000000000, -2.149999999999999023 ) ) ;
#134 = CARTESIAN_POINT ( 'NONE',  ( -0.4020760853018058856, 2.632990618166808249E-16, 2.149999999999999023 ) ) ;
#135 = STYLED_ITEM ( 'NONE', ( #21 ), #193 ) ;
#136 = SURFACE_SIDE_STYLE ('',( #59 ) ) ;
#137 = DIRECTION ( 'NONE',  ( 0.000000000000000000, 0.000000000000000000, 1.000000000000000000 ) ) ;
#138 = PRESENTATION_STYLE_ASSIGNMENT (( #67 ) ) ;
#139 = AXIS2_PLACEMENT_3D ( 'NONE', #77, #230, #131 ) ;
#140 = SURFACE_SIDE_STYLE ('',( #239 ) ) ;
#141 = DIRECTION ( 'NONE',  ( 1.000000000000000000, -0.000000000000000000, -0.000000000000000000 ) ) ;
#142 = ORIENTED_EDGE ( 'NONE', *, *, #74, .T. ) ;
#143 = AXIS2_PLACEMENT_3D ( 'NONE', #109, #170, #13 ) ;
#144 = PRODUCT ( '900.405.004.000', '900.405.004.000', '', ( #9 ) ) ;
#145 = ORIENTED_EDGE ( 'NONE', *, *, #194, .F. ) ;
#146 = DIRECTION ( 'NONE',  ( 1.000000000000000000, -0.000000000000000000, -0.000000000000000000 ) ) ;
#147 = ADVANCED_FACE ( 'NONE', ( #150 ), #198, .T. ) ;
#148 = ORIENTED_EDGE ( 'NONE', *, *, #41, .T. ) ;
#149 = ORIENTED_EDGE ( 'NONE', *, *, #160, .T. ) ;
#150 = FACE_OUTER_BOUND ( 'NONE', #176, .T. ) ;
#151 = DIRECTION ( 'NONE',  ( 1.000000000000000000, -0.000000000000000000, -0.000000000000000000 ) ) ;
#152 = VECTOR ( 'NONE', #125, 1000.000000000000000 ) ;
#153 = DIRECTION ( 'NONE',  ( 0.000000000000000000, 0.000000000000000000, -1.000000000000000000 ) ) ;
#154 = LINE ( 'NONE', #232, #38 ) ;
#155 = FILL_AREA_STYLE ('',( #117 ) ) ;
#156 = VERTEX_POINT ( 'NONE', #175 ) ;
#157 = CIRCLE ( 'NONE', #87, 3.599999999999999201 ) ;
#158 =( NAMED_UNIT ( * ) SI_UNIT ( $, .STERADIAN. ) SOLID_ANGLE_UNIT ( ) );
#159 =( NAMED_UNIT ( * ) PLANE_ANGLE_UNIT ( ) SI_UNIT ( $, .RADIAN. ) );
#160 = EDGE_CURVE ( 'NONE', #100, #156, #167, .T. ) ;
#161 = FILL_AREA_STYLE_COLOUR ( '', #163 ) ;
#162 = VECTOR ( 'NONE', #132, 1000.000000000000000 ) ;
#163 = COLOUR_RGB ( '',0.7529411764705882248, 0.7529411764705882248, 0.7529411764705882248 ) ;
#164 = APPLICATION_PROTOCOL_DEFINITION ( 'draft international standard', 'automotive_design', 1998, #18 ) ;
#165 = CARTESIAN_POINT ( 'NONE',  ( -0.5499999999999983791, 0.000000000000000000, 3.599999999999998757 ) ) ;
#166 = CARTESIAN_POINT ( 'NONE',  ( -0.5499999999999983791, 0.000000000000000000, 0.000000000000000000 ) ) ;
#167 = CIRCLE ( 'NONE', #183, 2.149999999999999467 ) ;
#168 = ORIENTED_EDGE ( 'NONE', *, *, #204, .T. ) ;
#169 = CARTESIAN_POINT ( 'NONE',  ( 0.000000000000000000, 0.000000000000000000, 2.149999999999999467 ) ) ;
#170 = DIRECTION ( 'NONE',  ( 1.000000000000000000, -0.000000000000000000, -0.000000000000000000 ) ) ;
#171 = PRESENTATION_LAYER_ASSIGNMENT (  '', '', ( #135 ) ) ;
#172 = CARTESIAN_POINT ( 'NONE',  ( 0.000000000000000000, 0.000000000000000000, 0.000000000000000000 ) ) ;
#173 = CARTESIAN_POINT ( 'NONE',  ( 7.206746031746035897, 2.632990618166808249E-16, 2.149999999999999023 ) ) ;
#174 = MECHANICAL_DESIGN_GEOMETRIC_PRESENTATION_REPRESENTATION (  '', ( #135 ), #22 ) ;
#175 = CARTESIAN_POINT ( 'NONE',  ( 0.000000000000000000, 2.632990618166808742E-16, 2.149999999999999467 ) ) ;
#176 = EDGE_LOOP ( 'NONE', ( #66, #142, #145, #211 ) ) ;
#177 = FACE_OUTER_BOUND ( 'NONE', #130, .T. ) ;
#178 = AXIS2_PLACEMENT_3D ( 'NONE', #166, #146, #54 ) ;
#179 = DIRECTION ( 'NONE',  ( 0.000000000000000000, 0.000000000000000000, -1.000000000000000000 ) ) ;
#180 = STYLED_ITEM ( 'NONE', ( #138 ), #85 ) ;
#181 =( LENGTH_UNIT ( ) NAMED_UNIT ( * ) SI_UNIT ( .MILLI., .METRE. ) );
#182 = DIRECTION ( 'NONE',  ( 1.000000000000000000, 0.000000000000000000, 0.000000000000000000 ) ) ;
#183 = AXIS2_PLACEMENT_3D ( 'NONE', #84, #63, #43 ) ;
#184 = DIRECTION ( 'NONE',  ( 1.000000000000000000, -0.000000000000000000, -0.000000000000000000 ) ) ;
#185 = ORIENTED_EDGE ( 'NONE', *, *, #214, .T. ) ;
#186 = VERTEX_POINT ( 'NONE', #134 ) ;
#187 = CIRCLE ( 'NONE', #238, 3.599999999999999201 ) ;
#188 = AXIS2_PLACEMENT_3D ( 'NONE', #27, #220, #137 ) ;
#189 = ORIENTED_EDGE ( 'NONE', *, *, #231, .F. ) ;
#190 = EDGE_LOOP ( 'NONE', ( #126, #168, #86, #47 ) ) ;
#191 =( LENGTH_UNIT ( ) NAMED_UNIT ( * ) SI_UNIT ( .MILLI., .METRE. ) );
#192 = AXIS2_PLACEMENT_3D ( 'NONE', #83, #4, #78 ) ;
#193 = MANIFOLD_SOLID_BREP ( 'Rotation1', #28 ) ;
#194 = EDGE_CURVE ( 'NONE', #57, #199, #157, .T. ) ;
#195 = CARTESIAN_POINT ( 'NONE',  ( -0.5499999999999983791, 4.408728476930470165E-16, -3.599999999999998757 ) ) ;
#196 = CARTESIAN_POINT ( 'NONE',  ( -0.4020760853018058856, 0.000000000000000000, 0.000000000000000000 ) ) ;
#197 = CIRCLE ( 'NONE', #2, 2.149999999999999023 ) ;
#198 = CYLINDRICAL_SURFACE ( 'NONE', #16, 3.599999999999999201 ) ;
#199 = VERTEX_POINT ( 'NONE', #3 ) ;
#200 = SHAPE_DEFINITION_REPRESENTATION ( #209, #85 ) ;
#201 =( LENGTH_UNIT ( ) NAMED_UNIT ( * ) SI_UNIT ( .MILLI., .METRE. ) );
#202 = CIRCLE ( 'NONE', #229, 2.149999999999999023 ) ;
#203 = DIRECTION ( 'NONE',  ( 0.000000000000000000, 0.000000000000000000, 1.000000000000000000 ) ) ;
#204 = EDGE_CURVE ( 'NONE', #100, #57, #154, .T. ) ;
#205 = CARTESIAN_POINT ( 'NONE',  ( 0.000000000000000000, 0.000000000000000000, 0.000000000000000000 ) ) ;
#206 = ADVANCED_FACE ( 'NONE', ( #96 ), #58, .T. ) ;
#207 = ORIENTED_EDGE ( 'NONE', *, *, #231, .T. ) ;
#208 = EDGE_LOOP ( 'NONE', ( #25, #148, #32, #37 ) ) ;
#209 = PRODUCT_DEFINITION_SHAPE ( 'NONE', 'NONE',  #56 ) ;
#210 = UNCERTAINTY_MEASURE_WITH_UNIT (LENGTH_MEASURE( 1.000000000000000082E-05 ), #201, 'distance_accuracy_value', 'NONE');
#211 = ORIENTED_EDGE ( 'NONE', *, *, #24, .F. ) ;
#212 = ORIENTED_EDGE ( 'NONE', *, *, #88, .T. ) ;
#213 = CARTESIAN_POINT ( 'NONE',  ( -0.1479239146981933817, 0.000000000000000000, 0.000000000000000000 ) ) ;
#214 = EDGE_CURVE ( 'NONE', #90, #100, #235, .T. ) ;
#215 =( NAMED_UNIT ( * ) SI_UNIT ( $, .STERADIAN. ) SOLID_ANGLE_UNIT ( ) );
#216 = DIRECTION ( 'NONE',  ( -0.1014897395041336331, 1.218323440677263481E-16, -0.9948365859654454413 ) ) ;
#217 = AXIS2_PLACEMENT_3D ( 'NONE', #29, #141, #179 ) ;
#218 = CARTESIAN_POINT ( 'NONE',  ( -0.4020760853018058856, 0.000000000000000000, -2.149999999999999023 ) ) ;
#219 = CARTESIAN_POINT ( 'NONE',  ( -0.5499999999999983791, 0.000000000000000000, 3.599999999999998757 ) ) ;
#220 = DIRECTION ( 'NONE',  ( -1.000000000000000000, 0.000000000000000000, 0.000000000000000000 ) ) ;
#221 = CARTESIAN_POINT ( 'NONE',  ( -0.5499999999999983791, 4.408728476930470165E-16, -3.599999999999998757 ) ) ;
#222 = ADVANCED_FACE ( 'NONE', ( #46 ), #234, .F. ) ;
#223 = VERTEX_POINT ( 'NONE', #221 ) ;
#224 = AXIS2_PLACEMENT_3D ( 'NONE', #205, #243, #182 ) ;
#225 = ORIENTED_EDGE ( 'NONE', *, *, #31, .T. ) ;
#226 = ORIENTED_EDGE ( 'NONE', *, *, #118, .T. ) ;
#227 = UNCERTAINTY_MEASURE_WITH_UNIT (LENGTH_MEASURE( 1.000000000000000082E-05 ), #181, 'distance_accuracy_value', 'NONE');
#228 = ORIENTED_EDGE ( 'NONE', *, *, #107, .F. ) ;
#229 = AXIS2_PLACEMENT_3D ( 'NONE', #95, #151, #23 ) ;
#230 = DIRECTION ( 'NONE',  ( 1.000000000000000000, -0.000000000000000000, -0.000000000000000000 ) ) ;
#231 = EDGE_CURVE ( 'NONE', #186, #72, #101, .T. ) ;
#232 = CARTESIAN_POINT ( 'NONE',  ( 0.000000000000000000, 2.632990618166808742E-16, -2.149999999999999467 ) ) ;
#233 = CARTESIAN_POINT ( 'NONE',  ( 7.206746031746035897, 0.000000000000000000, 0.000000000000000000 ) ) ;
#234 = CONICAL_SURFACE ( 'NONE', #76, 3.599999999999998757, 1.469131547868512300 ) ;
#235 = LINE ( 'NONE', #133, #103 ) ;
#236 = FACE_OUTER_BOUND ( 'NONE', #190, .T. ) ;
#237 = CARTESIAN_POINT ( 'NONE',  ( 0.000000000000000000, 0.000000000000000000, -2.149999999999999467 ) ) ;
#238 = AXIS2_PLACEMENT_3D ( 'NONE', #213, #184, #10 ) ;
#239 = SURFACE_STYLE_FILL_AREA ( #240 ) ;
#240 = FILL_AREA_STYLE ('',( #161 ) ) ;
#241 =( NAMED_UNIT ( * ) PLANE_ANGLE_UNIT ( ) SI_UNIT ( $, .RADIAN. ) );
#242 = EDGE_CURVE ( 'NONE', #156, #100, #116, .T. ) ;
#243 = DIRECTION ( 'NONE',  ( 0.000000000000000000, 0.000000000000000000, 1.000000000000000000 ) ) ;
#244 = LINE ( 'NONE', #71, #152 ) ;
#245 = CONICAL_SURFACE ( 'NONE', #192, 3.599999999999998757, 1.469131547868512300 ) ;
#246 = PRESENTATION_LAYER_ASSIGNMENT (  '', '', ( #180 ) ) ;
#247 = ORIENTED_EDGE ( 'NONE', *, *, #98, .T. ) ;
#248 = ADVANCED_FACE ( 'NONE', ( #26 ), #50, .T. ) ;
#249 = PRODUCT_DEFINITION_CONTEXT ( 'detailed design', #18, 'design' ) ;
#250 = ORIENTED_EDGE ( 'NONE', *, *, #242, .F. ) ;
#251 = ORIENTED_EDGE ( 'NONE', *, *, #204, .F. ) ;
#252 = ADVANCED_FACE ( 'NONE', ( #177 ), #119, .F. ) ;
#253 = DIRECTION ( 'NONE',  ( -0.1014897395041340772, 0.000000000000000000, 0.9948365859654453303 ) ) ;
#254 = DIRECTION ( 'NONE',  ( 1.000000000000000000, -0.000000000000000000, -0.000000000000000000 ) ) ;
ENDSEC;
END-ISO-10303-21;
