ISO-10303-21;
HEADER;
FILE_DESCRIPTION (( 'STEP AP214' ),
    '1' );
FILE_NAME ('900.405.005.000.STEP',
    '2024-06-20T05:19:34',
    ( '' ),
    ( '' ),
    'SwSTEP 2.0',
    'SolidWorks 2022',
    '' );
FILE_SCHEMA (( 'AUTOMOTIVE_DESIGN' ));
ENDSEC;

DATA;
#1 = CYLINDRICAL_SURFACE ( 'NONE', #3, 4.599999999999997868 ) ;
#2 = DIRECTION ( 'NONE',  ( 1.000000000000000000, -0.000000000000000000, -0.000000000000000000 ) ) ;
#3 = AXIS2_PLACEMENT_3D ( 'NONE', #162, #242, #144 ) ;
#4 = ORIENTED_EDGE ( 'NONE', *, *, #190, .F. ) ;
#5 = EDGE_CURVE ( 'NONE', #37, #191, #154, .T. ) ;
#6 = DIRECTION ( 'NONE',  ( 1.000000000000000000, -0.000000000000000000, -0.000000000000000000 ) ) ;
#7 = CYLINDRICAL_SURFACE ( 'NONE', #26, 2.649999999999999023 ) ;
#8 = DIRECTION ( 'NONE',  ( 0.000000000000000000, 0.000000000000000000, -1.000000000000000000 ) ) ;
#9 = ADVANCED_FACE ( 'NONE', ( #231 ), #232, .F. ) ;
#10 = AXIS2_PLACEMENT_3D ( 'NONE', #250, #208, #110 ) ;
#11 =( LENGTH_UNIT ( ) NAMED_UNIT ( * ) SI_UNIT ( .MILLI., .METRE. ) );
#12 = CARTESIAN_POINT ( 'NONE',  ( 0.000000000000000000, 3.245314017740484976E-16, 2.649999999999999023 ) ) ;
#13 = VERTEX_POINT ( 'NONE', #60 ) ;
#14 = ORIENTED_EDGE ( 'NONE', *, *, #109, .T. ) ;
#15 = VECTOR ( 'NONE', #183, 1000.000000000000227 ) ;
#16 = ADVANCED_FACE ( 'NONE', ( #18 ), #87, .F. ) ;
#17 = DIRECTION ( 'NONE',  ( 1.000000000000000000, -0.000000000000000000, -0.000000000000000000 ) ) ;
#18 = FACE_OUTER_BOUND ( 'NONE', #51, .T. ) ;
#19 = EDGE_CURVE ( 'NONE', #13, #247, #163, .T. ) ;
#20 = CARTESIAN_POINT ( 'NONE',  ( 0.000000000000000000, 3.245314017740484976E-16, -2.649999999999999023 ) ) ;
#21 = LINE ( 'NONE', #233, #174 ) ;
#22 = DIRECTION ( 'NONE',  ( 1.000000000000000000, -0.000000000000000000, -0.000000000000000000 ) ) ;
#23 = DIRECTION ( 'NONE',  ( 0.000000000000000000, 0.000000000000000000, -1.000000000000000000 ) ) ;
#24 = ORIENTED_EDGE ( 'NONE', *, *, #50, .F. ) ;
#25 = FACE_OUTER_BOUND ( 'NONE', #97, .T. ) ;
#26 = AXIS2_PLACEMENT_3D ( 'NONE', #106, #28, #27 ) ;
#27 = DIRECTION ( 'NONE',  ( 0.000000000000000000, 0.000000000000000000, -1.000000000000000000 ) ) ;
#28 = DIRECTION ( 'NONE',  ( 1.000000000000000000, -0.000000000000000000, -0.000000000000000000 ) ) ;
#29 = APPLICATION_CONTEXT ( 'automotive_design' ) ;
#30 = ORIENTED_EDGE ( 'NONE', *, *, #206, .T. ) ;
#31 = CONICAL_SURFACE ( 'NONE', #224, 4.599999999999998757, 1.469760343000857672 ) ;
#32 = EDGE_LOOP ( 'NONE', ( #167, #249, #212, #130 ) ) ;
#33 = FILL_AREA_STYLE_COLOUR ( '', #241 ) ;
#34 = ORIENTED_EDGE ( 'NONE', *, *, #83, .F. ) ;
#35 = EDGE_LOOP ( 'NONE', ( #24, #74, #30, #34 ) ) ;
#36 = CIRCLE ( 'NONE', #68, 4.599999999999997868 ) ;
#37 = VERTEX_POINT ( 'NONE', #53 ) ;
#38 = EDGE_CURVE ( 'NONE', #37, #145, #164, .T. ) ;
#39 = CARTESIAN_POINT ( 'NONE',  ( 7.206746031746035897, 0.000000000000000000, -2.649999999999999023 ) ) ;
#40 = CIRCLE ( 'NONE', #181, 4.599999999999998757 ) ;
#41 = CARTESIAN_POINT ( 'NONE',  ( -0.6499999999999995781, 0.000000000000000000, 4.599999999999998757 ) ) ;
#42 = VECTOR ( 'NONE', #17, 1000.000000000000000 ) ;
#43 = DIRECTION ( 'NONE',  ( -1.000000000000000000, 0.000000000000000000, 0.000000000000000000 ) ) ;
#44 = EDGE_LOOP ( 'NONE', ( #230, #4, #98, #94 ) ) ;
#45 = CARTESIAN_POINT ( 'NONE',  ( 0.000000000000000000, 0.000000000000000000, 2.649999999999999023 ) ) ;
#46 = DIRECTION ( 'NONE',  ( 0.000000000000000000, 0.000000000000000000, 1.000000000000000000 ) ) ;
#47 = CARTESIAN_POINT ( 'NONE',  ( -0.6499999999999995781, 0.000000000000000000, 0.000000000000000000 ) ) ;
#48 = AXIS2_PLACEMENT_3D ( 'NONE', #142, #22, #125 ) ;
#49 = SURFACE_STYLE_USAGE ( .BOTH. , #188 ) ;
#50 = EDGE_CURVE ( 'NONE', #75, #191, #136, .T. ) ;
#51 = EDGE_LOOP ( 'NONE', ( #131, #134, #147, #213 ) ) ;
#52 =( NAMED_UNIT ( * ) PLANE_ANGLE_UNIT ( ) SI_UNIT ( $, .RADIAN. ) );
#53 = CARTESIAN_POINT ( 'NONE',  ( -0.4523066710532073209, 3.245314017740484976E-16, 2.649999999999999023 ) ) ;
#54 = CONICAL_SURFACE ( 'NONE', #121, 2.649999999999999023, 1.469760343000857228 ) ;
#55 = FACE_OUTER_BOUND ( 'NONE', #229, .T. ) ;
#56 = EDGE_CURVE ( 'NONE', #150, #13, #157, .T. ) ;
#57 = ORIENTED_EDGE ( 'NONE', *, *, #38, .F. ) ;
#58 = DIRECTION ( 'NONE',  ( 0.000000000000000000, 0.000000000000000000, 1.000000000000000000 ) ) ;
#59 = ORIENTED_EDGE ( 'NONE', *, *, #5, .F. ) ;
#60 = CARTESIAN_POINT ( 'NONE',  ( -0.6499999999999995781, 5.633375276077823126E-16, -4.599999999999998757 ) ) ;
#61 = AXIS2_PLACEMENT_3D ( 'NONE', #214, #128, #116 ) ;
#62 = AXIS2_PLACEMENT_3D ( 'NONE', #168, #58, #78 ) ;
#63 =( NAMED_UNIT ( * ) PLANE_ANGLE_UNIT ( ) SI_UNIT ( $, .RADIAN. ) );
#64 = CONICAL_SURFACE ( 'NONE', #169, 2.649999999999999023, 1.469760343000857228 ) ;
#65 = DIRECTION ( 'NONE',  ( 1.000000000000000000, -0.000000000000000000, -0.000000000000000000 ) ) ;
#66 = FACE_OUTER_BOUND ( 'NONE', #44, .T. ) ;
#67 = EDGE_CURVE ( 'NONE', #117, #247, #36, .T. ) ;
#68 = AXIS2_PLACEMENT_3D ( 'NONE', #158, #141, #88 ) ;
#69 = SURFACE_STYLE_USAGE ( .BOTH. , #238 ) ;
#70 =( GEOMETRIC_REPRESENTATION_CONTEXT ( 3 ) GLOBAL_UNCERTAINTY_ASSIGNED_CONTEXT ( ( #153 ) ) GLOBAL_UNIT_ASSIGNED_CONTEXT ( ( #11, #52, #226 ) ) REPRESENTATION_CONTEXT ( 'NONE', 'WORKASPACE' ) );
#71 = CARTESIAN_POINT ( 'NONE',  ( 7.206746031746035897, 0.000000000000000000, 0.000000000000000000 ) ) ;
#72 = ORIENTED_EDGE ( 'NONE', *, *, #206, .F. ) ;
#73 = SURFACE_STYLE_FILL_AREA ( #245 ) ;
#74 = ORIENTED_EDGE ( 'NONE', *, *, #138, .T. ) ;
#75 = VERTEX_POINT ( 'NONE', #156 ) ;
#76 = UNCERTAINTY_MEASURE_WITH_UNIT (LENGTH_MEASURE( 1.000000000000000082E-05 ), #113, 'distance_accuracy_value', 'NONE');
#77 = ORIENTED_EDGE ( 'NONE', *, *, #5, .T. ) ;
#78 = DIRECTION ( 'NONE',  ( 1.000000000000000000, 0.000000000000000000, 0.000000000000000000 ) ) ;
#79 = ORIENTED_EDGE ( 'NONE', *, *, #19, .F. ) ;
#80 = ADVANCED_BREP_SHAPE_REPRESENTATION ( '900.405.005.000', ( #175, #62 ), #70 ) ;
#81 = EDGE_CURVE ( 'NONE', #37, #150, #199, .T. ) ;
#82 = MECHANICAL_DESIGN_GEOMETRIC_PRESENTATION_REPRESENTATION (  '', ( #252 ), #236 ) ;
#83 = EDGE_CURVE ( 'NONE', #191, #117, #223, .T. ) ;
#84 = AXIS2_PLACEMENT_3D ( 'NONE', #253, #2, #139 ) ;
#85 = CARTESIAN_POINT ( 'NONE',  ( -0.4523066710532073209, 0.000000000000000000, 0.000000000000000000 ) ) ;
#86 = CARTESIAN_POINT ( 'NONE',  ( -0.6499999999999995781, 5.633375276077823126E-16, -4.599999999999998757 ) ) ;
#87 = CONICAL_SURFACE ( 'NONE', #10, 4.599999999999998757, 1.469760343000857672 ) ;
#88 = DIRECTION ( 'NONE',  ( 0.000000000000000000, 0.000000000000000000, -1.000000000000000000 ) ) ;
#89 = ADVANCED_FACE ( 'NONE', ( #135 ), #54, .T. ) ;
#90 = DIRECTION ( 'NONE',  ( 1.000000000000000000, -0.000000000000000000, -0.000000000000000000 ) ) ;
#91 = AXIS2_PLACEMENT_3D ( 'NONE', #197, #105, #198 ) ;
#92 = APPLICATION_PROTOCOL_DEFINITION ( 'draft international standard', 'automotive_design', 1998, #244 ) ;
#93 = DIRECTION ( 'NONE',  ( 1.000000000000000000, -0.000000000000000000, -0.000000000000000000 ) ) ;
#94 = ORIENTED_EDGE ( 'NONE', *, *, #67, .T. ) ;
#95 = ORIENTED_EDGE ( 'NONE', *, *, #50, .T. ) ;
#96 = CIRCLE ( 'NONE', #170, 4.599999999999997868 ) ;
#97 = EDGE_LOOP ( 'NONE', ( #246, #187, #166, #57 ) ) ;
#98 = ORIENTED_EDGE ( 'NONE', *, *, #83, .T. ) ;
#99 = COLOUR_RGB ( '',0.7529411764705882248, 0.7529411764705882248, 0.7529411764705882248 ) ;
#100 = PRESENTATION_LAYER_ASSIGNMENT (  '', '', ( #210 ) ) ;
#101 = EDGE_CURVE ( 'NONE', #150, #37, #120, .T. ) ;
#102 = DIRECTION ( 'NONE',  ( -1.000000000000000000, 0.000000000000000000, 0.000000000000000000 ) ) ;
#103 = SURFACE_STYLE_FILL_AREA ( #161 ) ;
#104 = LINE ( 'NONE', #20, #209 ) ;
#105 = DIRECTION ( 'NONE',  ( 1.000000000000000000, -0.000000000000000000, -0.000000000000000000 ) ) ;
#106 = CARTESIAN_POINT ( 'NONE',  ( 7.206746031746035897, 0.000000000000000000, 0.000000000000000000 ) ) ;
#107 = DIRECTION ( 'NONE',  ( 0.000000000000000000, 0.000000000000000000, -1.000000000000000000 ) ) ;
#108 = CARTESIAN_POINT ( 'NONE',  ( 0.000000000000000000, 0.000000000000000000, 0.000000000000000000 ) ) ;
#109 = EDGE_CURVE ( 'NONE', #150, #75, #124, .T. ) ;
#110 = DIRECTION ( 'NONE',  ( 0.000000000000000000, 0.000000000000000000, 1.000000000000000000 ) ) ;
#111 = CARTESIAN_POINT ( 'NONE',  ( -0.1976933289467930621, 0.000000000000000000, -4.599999999999997868 ) ) ;
#112 = ORIENTED_EDGE ( 'NONE', *, *, #172, .T. ) ;
#113 =( LENGTH_UNIT ( ) NAMED_UNIT ( * ) SI_UNIT ( .MILLI., .METRE. ) );
#114 = CARTESIAN_POINT ( 'NONE',  ( 7.206746031746035897, 0.000000000000000000, -4.599999999999997868 ) ) ;
#115 = SHAPE_DEFINITION_REPRESENTATION ( #155, #80 ) ;
#116 = DIRECTION ( 'NONE',  ( 0.000000000000000000, 0.000000000000000000, -1.000000000000000000 ) ) ;
#117 = VERTEX_POINT ( 'NONE', #202 ) ;
#118 = CARTESIAN_POINT ( 'NONE',  ( -0.6499999999999995781, 0.000000000000000000, 0.000000000000000000 ) ) ;
#119 = ADVANCED_FACE ( 'NONE', ( #25 ), #31, .F. ) ;
#120 = CIRCLE ( 'NONE', #91, 2.649999999999999023 ) ;
#121 = AXIS2_PLACEMENT_3D ( 'NONE', #122, #102, #46 ) ;
#122 = CARTESIAN_POINT ( 'NONE',  ( 0.000000000000000000, 0.000000000000000000, 0.000000000000000000 ) ) ;
#123 =( LENGTH_UNIT ( ) NAMED_UNIT ( * ) SI_UNIT ( .MILLI., .METRE. ) );
#124 = LINE ( 'NONE', #39, #185 ) ;
#125 = DIRECTION ( 'NONE',  ( 0.000000000000000000, 0.000000000000000000, -1.000000000000000000 ) ) ;
#126 = AXIS2_PLACEMENT_3D ( 'NONE', #71, #225, #8 ) ;
#127 =( NAMED_UNIT ( * ) SI_UNIT ( $, .STERADIAN. ) SOLID_ANGLE_UNIT ( ) );
#128 = DIRECTION ( 'NONE',  ( 1.000000000000000000, -0.000000000000000000, -0.000000000000000000 ) ) ;
#129 = CIRCLE ( 'NONE', #149, 2.649999999999999023 ) ;
#130 = ORIENTED_EDGE ( 'NONE', *, *, #67, .F. ) ;
#131 = ORIENTED_EDGE ( 'NONE', *, *, #56, .F. ) ;
#132 = ORIENTED_EDGE ( 'NONE', *, *, #109, .F. ) ;
#133 = ADVANCED_FACE ( 'NONE', ( #66 ), #64, .T. ) ;
#134 = ORIENTED_EDGE ( 'NONE', *, *, #101, .T. ) ;
#135 = FACE_OUTER_BOUND ( 'NONE', #35, .T. ) ;
#136 = CIRCLE ( 'NONE', #48, 2.649999999999999023 ) ;
#137 = DIRECTION ( 'NONE',  ( 1.000000000000000000, -0.000000000000000000, -0.000000000000000000 ) ) ;
#138 = EDGE_CURVE ( 'NONE', #75, #247, #104, .T. ) ;
#139 = DIRECTION ( 'NONE',  ( 0.000000000000000000, 0.000000000000000000, -1.000000000000000000 ) ) ;
#140 =( GEOMETRIC_REPRESENTATION_CONTEXT ( 3 ) GLOBAL_UNCERTAINTY_ASSIGNED_CONTEXT ( ( #76 ) ) GLOBAL_UNIT_ASSIGNED_CONTEXT ( ( #113, #239, #205 ) ) REPRESENTATION_CONTEXT ( 'NONE', 'WORKASPACE' ) );
#141 = DIRECTION ( 'NONE',  ( 1.000000000000000000, -0.000000000000000000, -0.000000000000000000 ) ) ;
#142 = CARTESIAN_POINT ( 'NONE',  ( 0.000000000000000000, 0.000000000000000000, 0.000000000000000000 ) ) ;
#143 = FACE_OUTER_BOUND ( 'NONE', #180, .T. ) ;
#144 = DIRECTION ( 'NONE',  ( 0.000000000000000000, 0.000000000000000000, -1.000000000000000000 ) ) ;
#145 = VERTEX_POINT ( 'NONE', #221 ) ;
#146 = PRESENTATION_STYLE_ASSIGNMENT (( #49 ) ) ;
#147 = ORIENTED_EDGE ( 'NONE', *, *, #38, .T. ) ;
#148 = DIRECTION ( 'NONE',  ( 1.000000000000000000, -0.000000000000000000, -0.000000000000000000 ) ) ;
#149 = AXIS2_PLACEMENT_3D ( 'NONE', #108, #6, #228 ) ;
#150 = VERTEX_POINT ( 'NONE', #173 ) ;
#151 = CARTESIAN_POINT ( 'NONE',  ( 7.206746031746035897, 3.245314017740484976E-16, 2.649999999999999023 ) ) ;
#152 = PRODUCT_CONTEXT ( 'NONE', #244, 'mechanical' ) ;
#153 = UNCERTAINTY_MEASURE_WITH_UNIT (LENGTH_MEASURE( 1.000000000000000082E-05 ), #11, 'distance_accuracy_value', 'NONE');
#154 = LINE ( 'NONE', #151, #42 ) ;
#155 = PRODUCT_DEFINITION_SHAPE ( 'NONE', 'NONE',  #243 ) ;
#156 = CARTESIAN_POINT ( 'NONE',  ( 0.000000000000000000, 0.000000000000000000, -2.649999999999999023 ) ) ;
#157 = LINE ( 'NONE', #86, #15 ) ;
#158 = CARTESIAN_POINT ( 'NONE',  ( -0.1976933289467930621, 0.000000000000000000, 0.000000000000000000 ) ) ;
#159 = CLOSED_SHELL ( 'NONE', ( #89, #219, #119, #9, #201, #16, #178, #133 ) ) ;
#160 = EDGE_CURVE ( 'NONE', #13, #145, #204, .T. ) ;
#161 = FILL_AREA_STYLE ('',( #220 ) ) ;
#162 = CARTESIAN_POINT ( 'NONE',  ( 7.206746031746035897, 0.000000000000000000, 0.000000000000000000 ) ) ;
#163 = LINE ( 'NONE', #114, #248 ) ;
#164 = LINE ( 'NONE', #41, #251 ) ;
#165 = AXIS2_PLACEMENT_3D ( 'NONE', #85, #235, #23 ) ;
#166 = ORIENTED_EDGE ( 'NONE', *, *, #196, .F. ) ;
#167 = ORIENTED_EDGE ( 'NONE', *, *, #172, .F. ) ;
#168 = CARTESIAN_POINT ( 'NONE',  ( 0.000000000000000000, 0.000000000000000000, 0.000000000000000000 ) ) ;
#169 = AXIS2_PLACEMENT_3D ( 'NONE', #203, #43, #179 ) ;
#170 = AXIS2_PLACEMENT_3D ( 'NONE', #184, #148, #207 ) ;
#171 = PRODUCT ( '900.405.005.000', '900.405.005.000', '', ( #152 ) ) ;
#172 = EDGE_CURVE ( 'NONE', #145, #117, #21, .T. ) ;
#173 = CARTESIAN_POINT ( 'NONE',  ( -0.4523066710532073209, 0.000000000000000000, -2.649999999999999023 ) ) ;
#174 = VECTOR ( 'NONE', #65, 1000.000000000000000 ) ;
#175 = MANIFOLD_SOLID_BREP ( 'Rotation1', #159 ) ;
#176 = DIRECTION ( 'NONE',  ( 0.000000000000000000, 0.000000000000000000, 1.000000000000000000 ) ) ;
#177 = DIRECTION ( 'NONE',  ( -0.1008641710789474899, 1.218401352191157545E-16, -0.9949002055445343995 ) ) ;
#178 = ADVANCED_FACE ( 'NONE', ( #186 ), #1, .T. ) ;
#179 = DIRECTION ( 'NONE',  ( 0.000000000000000000, 0.000000000000000000, 1.000000000000000000 ) ) ;
#180 = EDGE_LOOP ( 'NONE', ( #194, #112, #72, #79 ) ) ;
#181 = AXIS2_PLACEMENT_3D ( 'NONE', #47, #90, #107 ) ;
#182 = PRODUCT_DEFINITION_FORMATION_WITH_SPECIFIED_SOURCE ( 'ANY', '', #171, .NOT_KNOWN. ) ;
#183 = DIRECTION ( 'NONE',  ( -0.1008641710789470458, 1.218401352191157545E-16, -0.9949002055445343995 ) ) ;
#184 = CARTESIAN_POINT ( 'NONE',  ( -0.1976933289467930621, 0.000000000000000000, 0.000000000000000000 ) ) ;
#185 = VECTOR ( 'NONE', #137, 1000.000000000000000 ) ;
#186 = FACE_OUTER_BOUND ( 'NONE', #32, .T. ) ;
#187 = ORIENTED_EDGE ( 'NONE', *, *, #56, .T. ) ;
#188 = SURFACE_SIDE_STYLE ('',( #73 ) ) ;
#189 = ORIENTED_EDGE ( 'NONE', *, *, #190, .T. ) ;
#190 = EDGE_CURVE ( 'NONE', #191, #75, #129, .T. ) ;
#191 = VERTEX_POINT ( 'NONE', #12 ) ;
#192 = UNCERTAINTY_MEASURE_WITH_UNIT (LENGTH_MEASURE( 1.000000000000000082E-05 ), #123, 'distance_accuracy_value', 'NONE');
#193 = VECTOR ( 'NONE', #222, 1000.000000000000227 ) ;
#194 = ORIENTED_EDGE ( 'NONE', *, *, #160, .T. ) ;
#195 = EDGE_LOOP ( 'NONE', ( #218, #77, #189, #132 ) ) ;
#196 = EDGE_CURVE ( 'NONE', #145, #13, #40, .T. ) ;
#197 = CARTESIAN_POINT ( 'NONE',  ( -0.4523066710532073209, 0.000000000000000000, 0.000000000000000000 ) ) ;
#198 = DIRECTION ( 'NONE',  ( 0.000000000000000000, 0.000000000000000000, -1.000000000000000000 ) ) ;
#199 = CIRCLE ( 'NONE', #165, 2.649999999999999023 ) ;
#200 = DIRECTION ( 'NONE',  ( -0.1008641710789470458, 0.000000000000000000, 0.9949002055445343995 ) ) ;
#201 = ADVANCED_FACE ( 'NONE', ( #55 ), #7, .F. ) ;
#202 = CARTESIAN_POINT ( 'NONE',  ( -0.1976933289467930621, 5.633375276077822140E-16, 4.599999999999997868 ) ) ;
#203 = CARTESIAN_POINT ( 'NONE',  ( 0.000000000000000000, 0.000000000000000000, 0.000000000000000000 ) ) ;
#204 = CIRCLE ( 'NONE', #84, 4.599999999999998757 ) ;
#205 =( NAMED_UNIT ( * ) SI_UNIT ( $, .STERADIAN. ) SOLID_ANGLE_UNIT ( ) );
#206 = EDGE_CURVE ( 'NONE', #247, #117, #96, .T. ) ;
#207 = DIRECTION ( 'NONE',  ( 0.000000000000000000, 0.000000000000000000, -1.000000000000000000 ) ) ;
#208 = DIRECTION ( 'NONE',  ( -1.000000000000000000, 0.000000000000000000, 0.000000000000000000 ) ) ;
#209 = VECTOR ( 'NONE', #177, 1000.000000000000227 ) ;
#210 = STYLED_ITEM ( 'NONE', ( #146 ), #80 ) ;
#211 = PRODUCT_RELATED_PRODUCT_CATEGORY ( 'part', '', ( #171 ) ) ;
#212 = ORIENTED_EDGE ( 'NONE', *, *, #19, .T. ) ;
#213 = ORIENTED_EDGE ( 'NONE', *, *, #160, .F. ) ;
#214 = CARTESIAN_POINT ( 'NONE',  ( 7.206746031746035897, 0.000000000000000000, 0.000000000000000000 ) ) ;
#215 = APPLICATION_PROTOCOL_DEFINITION ( 'draft international standard', 'automotive_design', 1998, #29 ) ;
#216 = PRODUCT_DEFINITION_CONTEXT ( 'detailed design', #29, 'design' ) ;
#217 = PRESENTATION_LAYER_ASSIGNMENT (  '', '', ( #252 ) ) ;
#218 = ORIENTED_EDGE ( 'NONE', *, *, #81, .F. ) ;
#219 = ADVANCED_FACE ( 'NONE', ( #143 ), #240, .T. ) ;
#220 = FILL_AREA_STYLE_COLOUR ( '', #99 ) ;
#221 = CARTESIAN_POINT ( 'NONE',  ( -0.6499999999999995781, 0.000000000000000000, 4.599999999999998757 ) ) ;
#222 = DIRECTION ( 'NONE',  ( -0.1008641710789474899, 0.000000000000000000, 0.9949002055445343995 ) ) ;
#223 = LINE ( 'NONE', #45, #193 ) ;
#224 = AXIS2_PLACEMENT_3D ( 'NONE', #118, #234, #176 ) ;
#225 = DIRECTION ( 'NONE',  ( 1.000000000000000000, -0.000000000000000000, -0.000000000000000000 ) ) ;
#226 =( NAMED_UNIT ( * ) SI_UNIT ( $, .STERADIAN. ) SOLID_ANGLE_UNIT ( ) );
#227 = ORIENTED_EDGE ( 'NONE', *, *, #101, .F. ) ;
#228 = DIRECTION ( 'NONE',  ( 0.000000000000000000, 0.000000000000000000, -1.000000000000000000 ) ) ;
#229 = EDGE_LOOP ( 'NONE', ( #59, #227, #14, #95 ) ) ;
#230 = ORIENTED_EDGE ( 'NONE', *, *, #138, .F. ) ;
#231 = FACE_OUTER_BOUND ( 'NONE', #195, .T. ) ;
#232 = CYLINDRICAL_SURFACE ( 'NONE', #61, 2.649999999999999023 ) ;
#233 = CARTESIAN_POINT ( 'NONE',  ( 7.206746031746035897, 5.633375276077822140E-16, 4.599999999999997868 ) ) ;
#234 = DIRECTION ( 'NONE',  ( -1.000000000000000000, 0.000000000000000000, 0.000000000000000000 ) ) ;
#235 = DIRECTION ( 'NONE',  ( 1.000000000000000000, -0.000000000000000000, -0.000000000000000000 ) ) ;
#236 =( GEOMETRIC_REPRESENTATION_CONTEXT ( 3 ) GLOBAL_UNCERTAINTY_ASSIGNED_CONTEXT ( ( #192 ) ) GLOBAL_UNIT_ASSIGNED_CONTEXT ( ( #123, #63, #127 ) ) REPRESENTATION_CONTEXT ( 'NONE', 'WORKASPACE' ) );
#237 = MECHANICAL_DESIGN_GEOMETRIC_PRESENTATION_REPRESENTATION (  '', ( #210 ), #140 ) ;
#238 = SURFACE_SIDE_STYLE ('',( #103 ) ) ;
#239 =( NAMED_UNIT ( * ) PLANE_ANGLE_UNIT ( ) SI_UNIT ( $, .RADIAN. ) );
#240 = CYLINDRICAL_SURFACE ( 'NONE', #126, 4.599999999999997868 ) ;
#241 = COLOUR_RGB ( '',0.7529411764705882248, 0.7529411764705882248, 0.7529411764705882248 ) ;
#242 = DIRECTION ( 'NONE',  ( 1.000000000000000000, -0.000000000000000000, -0.000000000000000000 ) ) ;
#243 = PRODUCT_DEFINITION ( 'UNKNOWN', '', #182, #216 ) ;
#244 = APPLICATION_CONTEXT ( 'automotive_design' ) ;
#245 = FILL_AREA_STYLE ('',( #33 ) ) ;
#246 = ORIENTED_EDGE ( 'NONE', *, *, #81, .T. ) ;
#247 = VERTEX_POINT ( 'NONE', #111 ) ;
#248 = VECTOR ( 'NONE', #93, 1000.000000000000000 ) ;
#249 = ORIENTED_EDGE ( 'NONE', *, *, #196, .T. ) ;
#250 = CARTESIAN_POINT ( 'NONE',  ( -0.6499999999999995781, 0.000000000000000000, 0.000000000000000000 ) ) ;
#251 = VECTOR ( 'NONE', #200, 1000.000000000000227 ) ;
#252 = STYLED_ITEM ( 'NONE', ( #254 ), #175 ) ;
#253 = CARTESIAN_POINT ( 'NONE',  ( -0.6499999999999995781, 0.000000000000000000, 0.000000000000000000 ) ) ;
#254 = PRESENTATION_STYLE_ASSIGNMENT (( #69 ) ) ;
ENDSEC;
END-ISO-10303-21;
