ISO-10303-21;
HEADER;
FILE_DESCRIPTION (( 'STEP AP214' ),
    '1' );
FILE_NAME ('900.405.006.000.STEP',
    '2024-06-19T13:09:27',
    ( '' ),
    ( '' ),
    'SwSTEP 2.0',
    'SolidWorks 2022',
    '' );
FILE_SCHEMA (( 'AUTOMOTIVE_DESIGN' ));
ENDSEC;

DATA;
#1 =( LENGTH_UNIT ( ) NAMED_UNIT ( * ) SI_UNIT ( .MILLI., .METRE. ) );
#2 = DIRECTION ( 'NONE',  ( 1.000000000000000000, -0.000000000000000000, -0.000000000000000000 ) ) ;
#3 = ORIENTED_EDGE ( 'NONE', *, *, #34, .T. ) ;
#4 = ADVANCED_FACE ( 'NONE', ( #120 ), #185, .T. ) ;
#5 = PRESENTATION_STYLE_ASSIGNMENT (( #153 ) ) ;
#6 = CARTESIAN_POINT ( 'NONE',  ( 0.000000000000000000, 0.000000000000000000, 0.000000000000000000 ) ) ;
#7 = CARTESIAN_POINT ( 'NONE',  ( 0.000000000000000000, 0.000000000000000000, 0.000000000000000000 ) ) ;
#8 = DIRECTION ( 'NONE',  ( 0.000000000000000000, 0.000000000000000000, -1.000000000000000000 ) ) ;
#9 = AXIS2_PLACEMENT_3D ( 'NONE', #74, #104, #10 ) ;
#10 = DIRECTION ( 'NONE',  ( 0.000000000000000000, 0.000000000000000000, -1.000000000000000000 ) ) ;
#11 = PRODUCT_CONTEXT ( 'NONE', #46, 'mechanical' ) ;
#12 = ORIENTED_EDGE ( 'NONE', *, *, #129, .F. ) ;
#13 = CIRCLE ( 'NONE', #164, 3.199999999999999289 ) ;
#14 = ORIENTED_EDGE ( 'NONE', *, *, #107, .F. ) ;
#15 = EDGE_CURVE ( 'NONE', #131, #163, #161, .T. ) ;
#16 = UNCERTAINTY_MEASURE_WITH_UNIT (LENGTH_MEASURE( 1.000000000000000082E-05 ), #1, 'distance_accuracy_value', 'NONE');
#17 = EDGE_LOOP ( 'NONE', ( #65, #188, #213, #94 ) ) ;
#18 = MECHANICAL_DESIGN_GEOMETRIC_PRESENTATION_REPRESENTATION (  '', ( #154 ), #45 ) ;
#19 = VERTEX_POINT ( 'NONE', #54 ) ;
#20 = CARTESIAN_POINT ( 'NONE',  ( -0.4499999999999999001, 6.245698675651499853E-16, 5.099999999999998757 ) ) ;
#21 = EDGE_LOOP ( 'NONE', ( #113, #47 ) ) ;
#22 =( GEOMETRIC_REPRESENTATION_CONTEXT ( 3 ) GLOBAL_UNCERTAINTY_ASSIGNED_CONTEXT ( ( #119 ) ) GLOBAL_UNIT_ASSIGNED_CONTEXT ( ( #97, #78, #143 ) ) REPRESENTATION_CONTEXT ( 'NONE', 'WORKASPACE' ) );
#23 = DIRECTION ( 'NONE',  ( 1.000000000000000000, -0.000000000000000000, -0.000000000000000000 ) ) ;
#24 = ORIENTED_EDGE ( 'NONE', *, *, #201, .F. ) ;
#25 = FILL_AREA_STYLE ('',( #99 ) ) ;
#26 = DIRECTION ( 'NONE',  ( 1.000000000000000000, -0.000000000000000000, -0.000000000000000000 ) ) ;
#27 = EDGE_CURVE ( 'NONE', #63, #205, #189, .T. ) ;
#28 = CARTESIAN_POINT ( 'NONE',  ( -0.4500000000000001221, 5.099999999999998757, 0.000000000000000000 ) ) ;
#29 = DIRECTION ( 'NONE',  ( 1.000000000000000000, -0.000000000000000000, -0.000000000000000000 ) ) ;
#30 = AXIS2_PLACEMENT_3D ( 'NONE', #76, #123, #39 ) ;
#31 = CIRCLE ( 'NONE', #105, 5.099999999999998757 ) ;
#32 = VERTEX_POINT ( 'NONE', #118 ) ;
#33 = CARTESIAN_POINT ( 'NONE',  ( -0.4499999999999999001, 0.000000000000000000, 0.000000000000000000 ) ) ;
#34 = EDGE_CURVE ( 'NONE', #32, #131, #52, .T. ) ;
#35 = CARTESIAN_POINT ( 'NONE',  ( 0.000000000000000000, 0.000000000000000000, 0.000000000000000000 ) ) ;
#36 =( NAMED_UNIT ( * ) SI_UNIT ( $, .STERADIAN. ) SOLID_ANGLE_UNIT ( ) );
#37 = DIRECTION ( 'NONE',  ( 1.000000000000000000, -0.000000000000000000, -0.000000000000000000 ) ) ;
#38 = DIRECTION ( 'NONE',  ( 1.000000000000000000, -0.000000000000000000, -0.000000000000000000 ) ) ;
#39 = DIRECTION ( 'NONE',  ( 0.000000000000000000, 0.000000000000000000, -1.000000000000000000 ) ) ;
#40 = CLOSED_SHELL ( 'NONE', ( #190, #139, #182, #174, #4, #186 ) ) ;
#41 = DIRECTION ( 'NONE',  ( -0.000000000000000000, 0.000000000000000000, -1.000000000000000000 ) ) ;
#42 = CARTESIAN_POINT ( 'NONE',  ( 0.000000000000000000, 6.245698675651499853E-16, 5.099999999999998757 ) ) ;
#43 = EDGE_CURVE ( 'NONE', #205, #169, #31, .T. ) ;
#44 = DIRECTION ( 'NONE',  ( 1.000000000000000000, -0.000000000000000000, -0.000000000000000000 ) ) ;
#45 =( GEOMETRIC_REPRESENTATION_CONTEXT ( 3 ) GLOBAL_UNCERTAINTY_ASSIGNED_CONTEXT ( ( #16 ) ) GLOBAL_UNIT_ASSIGNED_CONTEXT ( ( #1, #200, #36 ) ) REPRESENTATION_CONTEXT ( 'NONE', 'WORKASPACE' ) );
#46 = APPLICATION_CONTEXT ( 'automotive_design' ) ;
#47 = ORIENTED_EDGE ( 'NONE', *, *, #53, .T. ) ;
#48 = PRODUCT_DEFINITION_FORMATION_WITH_SPECIFIED_SOURCE ( 'ANY', '', #180, .NOT_KNOWN. ) ;
#49 = CARTESIAN_POINT ( 'NONE',  ( 0.000000000000000000, 0.000000000000000000, 0.000000000000000000 ) ) ;
#50 = VECTOR ( 'NONE', #159, 1000.000000000000000 ) ;
#51 = DIRECTION ( 'NONE',  ( 0.000000000000000000, 0.000000000000000000, -1.000000000000000000 ) ) ;
#52 = LINE ( 'NONE', #84, #196 ) ;
#53 = EDGE_CURVE ( 'NONE', #19, #32, #198, .T. ) ;
#54 = CARTESIAN_POINT ( 'NONE',  ( -0.4499999999999999001, 3.918869757271529474E-16, 3.199999999999999289 ) ) ;
#55 = CARTESIAN_POINT ( 'NONE',  ( 7.206746031746035897, 0.000000000000000000, -5.099999999999998757 ) ) ;
#56 = CARTESIAN_POINT ( 'NONE',  ( 7.206746031746035897, 3.918869757271529474E-16, 3.199999999999999289 ) ) ;
#57 = MECHANICAL_DESIGN_GEOMETRIC_PRESENTATION_REPRESENTATION (  '', ( #124 ), #22 ) ;
#58 = CARTESIAN_POINT ( 'NONE',  ( 0.000000000000000000, 3.918869757271529474E-16, 3.199999999999999289 ) ) ;
#59 =( GEOMETRIC_REPRESENTATION_CONTEXT ( 3 ) GLOBAL_UNCERTAINTY_ASSIGNED_CONTEXT ( ( #96 ) ) GLOBAL_UNIT_ASSIGNED_CONTEXT ( ( #75, #106, #89 ) ) REPRESENTATION_CONTEXT ( 'NONE', 'WORKASPACE' ) );
#60 = FILL_AREA_STYLE_COLOUR ( '', #93 ) ;
#61 = ORIENTED_EDGE ( 'NONE', *, *, #117, .T. ) ;
#62 = VECTOR ( 'NONE', #2, 1000.000000000000000 ) ;
#63 = VERTEX_POINT ( 'NONE', #170 ) ;
#64 = EDGE_CURVE ( 'NONE', #63, #85, #101, .T. ) ;
#65 = ORIENTED_EDGE ( 'NONE', *, *, #64, .T. ) ;
#66 = DIRECTION ( 'NONE',  ( 0.000000000000000000, 0.000000000000000000, -1.000000000000000000 ) ) ;
#67 = AXIS2_PLACEMENT_3D ( 'NONE', #103, #149, #171 ) ;
#68 = CARTESIAN_POINT ( 'NONE',  ( 0.000000000000000000, 0.000000000000000000, 0.000000000000000000 ) ) ;
#69 = DIRECTION ( 'NONE',  ( 1.000000000000000000, -0.000000000000000000, -0.000000000000000000 ) ) ;
#70 = CARTESIAN_POINT ( 'NONE',  ( 7.206746031746035897, 0.000000000000000000, 0.000000000000000000 ) ) ;
#71 = DIRECTION ( 'NONE',  ( 1.000000000000000000, -0.000000000000000000, -0.000000000000000000 ) ) ;
#72 = FACE_OUTER_BOUND ( 'NONE', #17, .T. ) ;
#73 = AXIS2_PLACEMENT_3D ( 'NONE', #70, #69, #51 ) ;
#74 = CARTESIAN_POINT ( 'NONE',  ( 7.206746031746035897, 0.000000000000000000, 0.000000000000000000 ) ) ;
#75 =( LENGTH_UNIT ( ) NAMED_UNIT ( * ) SI_UNIT ( .MILLI., .METRE. ) );
#76 = CARTESIAN_POINT ( 'NONE',  ( 7.206746031746035897, 0.000000000000000000, 0.000000000000000000 ) ) ;
#77 = CIRCLE ( 'NONE', #173, 3.199999999999999289 ) ;
#78 =( NAMED_UNIT ( * ) PLANE_ANGLE_UNIT ( ) SI_UNIT ( $, .RADIAN. ) );
#79 = FILL_AREA_STYLE ('',( #60 ) ) ;
#80 = EDGE_LOOP ( 'NONE', ( #126, #168 ) ) ;
#81 = LINE ( 'NONE', #138, #50 ) ;
#82 = SURFACE_SIDE_STYLE ('',( #86 ) ) ;
#83 = PRESENTATION_LAYER_ASSIGNMENT (  '', '', ( #154 ) ) ;
#84 = CARTESIAN_POINT ( 'NONE',  ( 7.206746031746035897, 0.000000000000000000, -3.199999999999999289 ) ) ;
#85 = VERTEX_POINT ( 'NONE', #20 ) ;
#86 = SURFACE_STYLE_FILL_AREA ( #25 ) ;
#87 = AXIS2_PLACEMENT_3D ( 'NONE', #134, #44, #140 ) ;
#88 = DIRECTION ( 'NONE',  ( 1.000000000000000000, -0.000000000000000000, -0.000000000000000000 ) ) ;
#89 =( NAMED_UNIT ( * ) SI_UNIT ( $, .STERADIAN. ) SOLID_ANGLE_UNIT ( ) );
#90 = AXIS2_PLACEMENT_3D ( 'NONE', #167, #38, #66 ) ;
#91 = CARTESIAN_POINT ( 'NONE',  ( 0.000000000000000000, 0.000000000000000000, -3.199999999999999289 ) ) ;
#92 = PRODUCT_DEFINITION ( 'UNKNOWN', '', #48, #152 ) ;
#93 = COLOUR_RGB ( '',0.6470588235294117974, 0.6196078431372549211, 0.5882352941176470784 ) ;
#94 = ORIENTED_EDGE ( 'NONE', *, *, #27, .F. ) ;
#95 = SURFACE_SIDE_STYLE ('',( #209 ) ) ;
#96 = UNCERTAINTY_MEASURE_WITH_UNIT (LENGTH_MEASURE( 1.000000000000000082E-05 ), #75, 'distance_accuracy_value', 'NONE');
#97 =( LENGTH_UNIT ( ) NAMED_UNIT ( * ) SI_UNIT ( .MILLI., .METRE. ) );
#98 = DIRECTION ( 'NONE',  ( 0.000000000000000000, 0.000000000000000000, -1.000000000000000000 ) ) ;
#99 = FILL_AREA_STYLE_COLOUR ( '', #111 ) ;
#100 = DIRECTION ( 'NONE',  ( 0.000000000000000000, 0.000000000000000000, -1.000000000000000000 ) ) ;
#101 = CIRCLE ( 'NONE', #90, 5.099999999999998757 ) ;
#102 = DIRECTION ( 'NONE',  ( 0.000000000000000000, 0.000000000000000000, -1.000000000000000000 ) ) ;
#103 = CARTESIAN_POINT ( 'NONE',  ( -0.4499999999999999001, 0.000000000000000000, 0.000000000000000000 ) ) ;
#104 = DIRECTION ( 'NONE',  ( 1.000000000000000000, -0.000000000000000000, -0.000000000000000000 ) ) ;
#105 = AXIS2_PLACEMENT_3D ( 'NONE', #68, #150, #98 ) ;
#106 =( NAMED_UNIT ( * ) PLANE_ANGLE_UNIT ( ) SI_UNIT ( $, .RADIAN. ) );
#107 = EDGE_CURVE ( 'NONE', #85, #63, #127, .T. ) ;
#108 = FACE_BOUND ( 'NONE', #80, .T. ) ;
#109 = AXIS2_PLACEMENT_3D ( 'NONE', #28, #175, #156 ) ;
#110 = DIRECTION ( 'NONE',  ( 0.000000000000000000, 0.000000000000000000, -1.000000000000000000 ) ) ;
#111 = COLOUR_RGB ( '',0.6470588235294117974, 0.6196078431372549211, 0.5882352941176470784 ) ;
#112 = AXIS2_PLACEMENT_3D ( 'NONE', #33, #147, #102 ) ;
#113 = ORIENTED_EDGE ( 'NONE', *, *, #194, .T. ) ;
#114 = ADVANCED_BREP_SHAPE_REPRESENTATION ( '900.405.006.000', ( #116, #136 ), #59 ) ;
#115 = ORIENTED_EDGE ( 'NONE', *, *, #64, .F. ) ;
#116 = MANIFOLD_SOLID_BREP ( 'Rotation1', #40 ) ;
#117 = EDGE_CURVE ( 'NONE', #19, #163, #157, .T. ) ;
#118 = CARTESIAN_POINT ( 'NONE',  ( -0.4499999999999999001, 0.000000000000000000, -3.199999999999999289 ) ) ;
#119 = UNCERTAINTY_MEASURE_WITH_UNIT (LENGTH_MEASURE( 1.000000000000000082E-05 ), #97, 'distance_accuracy_value', 'NONE');
#120 = FACE_OUTER_BOUND ( 'NONE', #202, .T. ) ;
#121 = CARTESIAN_POINT ( 'NONE',  ( -1.897353801849632760E-16, 3.199999999999999289, 0.000000000000000000 ) ) ;
#122 = CYLINDRICAL_SURFACE ( 'NONE', #87, 3.199999999999999289 ) ;
#123 = DIRECTION ( 'NONE',  ( 1.000000000000000000, -0.000000000000000000, -0.000000000000000000 ) ) ;
#124 = STYLED_ITEM ( 'NONE', ( #125 ), #114 ) ;
#125 = PRESENTATION_STYLE_ASSIGNMENT (( #128 ) ) ;
#126 = ORIENTED_EDGE ( 'NONE', *, *, #15, .F. ) ;
#127 = CIRCLE ( 'NONE', #67, 5.099999999999998757 ) ;
#128 = SURFACE_STYLE_USAGE ( .BOTH. , #95 ) ;
#129 = EDGE_CURVE ( 'NONE', #85, #169, #81, .T. ) ;
#130 = ORIENTED_EDGE ( 'NONE', *, *, #194, .F. ) ;
#131 = VERTEX_POINT ( 'NONE', #91 ) ;
#132 = ORIENTED_EDGE ( 'NONE', *, *, #144, .T. ) ;
#133 = EDGE_LOOP ( 'NONE', ( #204, #165 ) ) ;
#134 = CARTESIAN_POINT ( 'NONE',  ( 7.206746031746035897, 0.000000000000000000, 0.000000000000000000 ) ) ;
#135 = PLANE ( 'NONE',  #109 ) ;
#136 = AXIS2_PLACEMENT_3D ( 'NONE', #49, #160, #212 ) ;
#137 = CARTESIAN_POINT ( 'NONE',  ( 0.000000000000000000, 0.000000000000000000, -5.099999999999998757 ) ) ;
#138 = CARTESIAN_POINT ( 'NONE',  ( 7.206746031746035897, 6.245698675651499853E-16, 5.099999999999998757 ) ) ;
#139 = ADVANCED_FACE ( 'NONE', ( #208 ), #191, .F. ) ;
#140 = DIRECTION ( 'NONE',  ( 0.000000000000000000, 0.000000000000000000, -1.000000000000000000 ) ) ;
#141 = VECTOR ( 'NONE', #88, 1000.000000000000000 ) ;
#142 = ORIENTED_EDGE ( 'NONE', *, *, #34, .F. ) ;
#143 =( NAMED_UNIT ( * ) SI_UNIT ( $, .STERADIAN. ) SOLID_ANGLE_UNIT ( ) );
#144 = EDGE_CURVE ( 'NONE', #163, #131, #13, .T. ) ;
#145 = ORIENTED_EDGE ( 'NONE', *, *, #117, .F. ) ;
#146 = APPLICATION_PROTOCOL_DEFINITION ( 'draft international standard', 'automotive_design', 1998, #177 ) ;
#147 = DIRECTION ( 'NONE',  ( 1.000000000000000000, -0.000000000000000000, -0.000000000000000000 ) ) ;
#148 = AXIS2_PLACEMENT_3D ( 'NONE', #7, #29, #178 ) ;
#149 = DIRECTION ( 'NONE',  ( 1.000000000000000000, -0.000000000000000000, -0.000000000000000000 ) ) ;
#150 = DIRECTION ( 'NONE',  ( 1.000000000000000000, -0.000000000000000000, -0.000000000000000000 ) ) ;
#151 = ORIENTED_EDGE ( 'NONE', *, *, #53, .F. ) ;
#152 = PRODUCT_DEFINITION_CONTEXT ( 'detailed design', #177, 'design' ) ;
#153 = SURFACE_STYLE_USAGE ( .BOTH. , #82 ) ;
#154 = STYLED_ITEM ( 'NONE', ( #5 ), #116 ) ;
#155 = FACE_BOUND ( 'NONE', #21, .T. ) ;
#156 = DIRECTION ( 'NONE',  ( 0.000000000000000000, 0.000000000000000000, 1.000000000000000000 ) ) ;
#157 = LINE ( 'NONE', #56, #141 ) ;
#158 = AXIS2_PLACEMENT_3D ( 'NONE', #35, #23, #100 ) ;
#159 = DIRECTION ( 'NONE',  ( 1.000000000000000000, -0.000000000000000000, -0.000000000000000000 ) ) ;
#160 = DIRECTION ( 'NONE',  ( 0.000000000000000000, 0.000000000000000000, 1.000000000000000000 ) ) ;
#161 = CIRCLE ( 'NONE', #158, 3.199999999999999289 ) ;
#162 = ORIENTED_EDGE ( 'NONE', *, *, #27, .T. ) ;
#163 = VERTEX_POINT ( 'NONE', #58 ) ;
#164 = AXIS2_PLACEMENT_3D ( 'NONE', #6, #71, #110 ) ;
#165 = ORIENTED_EDGE ( 'NONE', *, *, #201, .T. ) ;
#166 = PRODUCT_RELATED_PRODUCT_CATEGORY ( 'part', '', ( #180 ) ) ;
#167 = CARTESIAN_POINT ( 'NONE',  ( -0.4499999999999999001, 0.000000000000000000, 0.000000000000000000 ) ) ;
#168 = ORIENTED_EDGE ( 'NONE', *, *, #144, .F. ) ;
#169 = VERTEX_POINT ( 'NONE', #42 ) ;
#170 = CARTESIAN_POINT ( 'NONE',  ( -0.4499999999999999001, 0.000000000000000000, -5.099999999999998757 ) ) ;
#171 = DIRECTION ( 'NONE',  ( 0.000000000000000000, 0.000000000000000000, -1.000000000000000000 ) ) ;
#172 = APPLICATION_PROTOCOL_DEFINITION ( 'draft international standard', 'automotive_design', 1998, #46 ) ;
#173 = AXIS2_PLACEMENT_3D ( 'NONE', #192, #26, #8 ) ;
#174 = ADVANCED_FACE ( 'NONE', ( #155, #195 ), #135, .T. ) ;
#175 = DIRECTION ( 'NONE',  ( -1.000000000000000000, 0.000000000000000000, 0.000000000000000000 ) ) ;
#176 = PLANE ( 'NONE',  #187 ) ;
#177 = APPLICATION_CONTEXT ( 'automotive_design' ) ;
#178 = DIRECTION ( 'NONE',  ( 0.000000000000000000, 0.000000000000000000, -1.000000000000000000 ) ) ;
#179 = DIRECTION ( 'NONE',  ( 1.000000000000000000, 0.000000000000000000, -0.000000000000000000 ) ) ;
#180 = PRODUCT ( '900.405.006.000', '900.405.006.000', '', ( #11 ) ) ;
#181 = SHAPE_DEFINITION_REPRESENTATION ( #183, #114 ) ;
#182 = ADVANCED_FACE ( 'NONE', ( #193 ), #122, .F. ) ;
#183 = PRODUCT_DEFINITION_SHAPE ( 'NONE', 'NONE',  #92 ) ;
#184 = PRESENTATION_LAYER_ASSIGNMENT (  '', '', ( #124 ) ) ;
#185 = CYLINDRICAL_SURFACE ( 'NONE', #73, 5.099999999999998757 ) ;
#186 = ADVANCED_FACE ( 'NONE', ( #206, #108 ), #176, .T. ) ;
#187 = AXIS2_PLACEMENT_3D ( 'NONE', #121, #179, #41 ) ;
#188 = ORIENTED_EDGE ( 'NONE', *, *, #129, .T. ) ;
#189 = LINE ( 'NONE', #55, #62 ) ;
#190 = ADVANCED_FACE ( 'NONE', ( #72 ), #207, .T. ) ;
#191 = CYLINDRICAL_SURFACE ( 'NONE', #30, 3.199999999999999289 ) ;
#192 = CARTESIAN_POINT ( 'NONE',  ( -0.4499999999999999001, 0.000000000000000000, 0.000000000000000000 ) ) ;
#193 = FACE_OUTER_BOUND ( 'NONE', #197, .T. ) ;
#194 = EDGE_CURVE ( 'NONE', #32, #19, #77, .T. ) ;
#195 = FACE_OUTER_BOUND ( 'NONE', #210, .T. ) ;
#196 = VECTOR ( 'NONE', #37, 1000.000000000000000 ) ;
#197 = EDGE_LOOP ( 'NONE', ( #145, #130, #3, #211 ) ) ;
#198 = CIRCLE ( 'NONE', #112, 3.199999999999999289 ) ;
#199 = EDGE_LOOP ( 'NONE', ( #151, #61, #132, #142 ) ) ;
#200 =( NAMED_UNIT ( * ) PLANE_ANGLE_UNIT ( ) SI_UNIT ( $, .RADIAN. ) );
#201 = EDGE_CURVE ( 'NONE', #169, #205, #203, .T. ) ;
#202 = EDGE_LOOP ( 'NONE', ( #12, #214, #162, #24 ) ) ;
#203 = CIRCLE ( 'NONE', #148, 5.099999999999998757 ) ;
#204 = ORIENTED_EDGE ( 'NONE', *, *, #43, .T. ) ;
#205 = VERTEX_POINT ( 'NONE', #137 ) ;
#206 = FACE_OUTER_BOUND ( 'NONE', #133, .T. ) ;
#207 = CYLINDRICAL_SURFACE ( 'NONE', #9, 5.099999999999998757 ) ;
#208 = FACE_OUTER_BOUND ( 'NONE', #199, .T. ) ;
#209 = SURFACE_STYLE_FILL_AREA ( #79 ) ;
#210 = EDGE_LOOP ( 'NONE', ( #115, #14 ) ) ;
#211 = ORIENTED_EDGE ( 'NONE', *, *, #15, .T. ) ;
#212 = DIRECTION ( 'NONE',  ( 1.000000000000000000, 0.000000000000000000, 0.000000000000000000 ) ) ;
#213 = ORIENTED_EDGE ( 'NONE', *, *, #43, .F. ) ;
#214 = ORIENTED_EDGE ( 'NONE', *, *, #107, .T. ) ;
ENDSEC;
END-ISO-10303-21;
