ISO-10303-21;
HEADER;
FILE_DESCRIPTION (( 'STEP AP214' ),
    '1' );
FILE_NAME ('900.405.008.000.STEP',
    '2024-06-19T12:05:37',
    ( '' ),
    ( '' ),
    'SwSTEP 2.0',
    'SolidWorks 2022',
    '' );
FILE_SCHEMA (( 'AUTOMOTIVE_DESIGN' ));
ENDSEC;

DATA;
#1 = EDGE_LOOP ( 'NONE', ( #169, #162 ) ) ;
#2 = EDGE_LOOP ( 'NONE', ( #163, #15 ) ) ;
#3 = CYLINDRICAL_SURFACE ( 'NONE', #144, 4.200000000000001954 ) ;
#4 = AXIS2_PLACEMENT_3D ( 'NONE', #91, #77, #151 ) ;
#5 =( LENGTH_UNIT ( ) NAMED_UNIT ( * ) SI_UNIT ( .MILLI., .METRE. ) );
#6 = VERTEX_POINT ( 'NONE', #54 ) ;
#7 = CARTESIAN_POINT ( 'NONE',  ( 7.206746031746037673, -4.915906968647666395E-15, 6.999999999999988454 ) ) ;
#8 =( LENGTH_UNIT ( ) NAMED_UNIT ( * ) SI_UNIT ( .MILLI., .METRE. ) );
#9 = DIRECTION ( 'NONE',  ( -1.960049020799458510E-16, -1.665334536937734318E-16, -1.000000000000000000 ) ) ;
#10 = AXIS2_PLACEMENT_3D ( 'NONE', #59, #174, #41 ) ;
#11 = VERTEX_POINT ( 'NONE', #113 ) ;
#12 = ORIENTED_EDGE ( 'NONE', *, *, #206, .F. ) ;
#13 =( NAMED_UNIT ( * ) SI_UNIT ( $, .STERADIAN. ) SOLID_ANGLE_UNIT ( ) );
#14 = EDGE_LOOP ( 'NONE', ( #179, #97, #112, #108 ) ) ;
#15 = ORIENTED_EDGE ( 'NONE', *, *, #43, .F. ) ;
#16 = ORIENTED_EDGE ( 'NONE', *, *, #203, .T. ) ;
#17 = ORIENTED_EDGE ( 'NONE', *, *, #146, .T. ) ;
#18 = DIRECTION ( 'NONE',  ( -2.013518320330221746E-16, -1.665334536937733332E-16, -1.000000000000000000 ) ) ;
#19 = CARTESIAN_POINT ( 'NONE',  ( -0.5499999999999949374, 1.040834085586084257E-14, 1.387778780781445676E-14 ) ) ;
#20 = PRODUCT_RELATED_PRODUCT_CATEGORY ( 'part', '', ( #63 ) ) ;
#21 = MECHANICAL_DESIGN_GEOMETRIC_PRESENTATION_REPRESENTATION (  '', ( #44 ), #161 ) ;
#22 = SURFACE_STYLE_FILL_AREA ( #70 ) ;
#23 = FACE_BOUND ( 'NONE', #164, .T. ) ;
#24 = DIRECTION ( 'NONE',  ( 1.000000000000000000, -4.259385939352627576E-17, -1.112428321272187978E-17 ) ) ;
#25 = CIRCLE ( 'NONE', #4, 7.000000000000002665 ) ;
#26 = DIRECTION ( 'NONE',  ( 1.000000000000000000, -4.259385939352627576E-17, -1.112428321272187978E-17 ) ) ;
#27 = DIRECTION ( 'NONE',  ( -2.065146995210483709E-16, -1.665334536937734071E-16, -1.000000000000000000 ) ) ;
#28 = CIRCLE ( 'NONE', #37, 4.200000000000001954 ) ;
#29 = APPLICATION_PROTOCOL_DEFINITION ( 'draft international standard', 'automotive_design', 1998, #141 ) ;
#30 = ORIENTED_EDGE ( 'NONE', *, *, #203, .F. ) ;
#31 = AXIS2_PLACEMENT_3D ( 'NONE', #65, #183, #36 ) ;
#32 = DIRECTION ( 'NONE',  ( 1.000000000000000000, -4.259385939352627576E-17, -1.112428321272187978E-17 ) ) ;
#33 = PRODUCT_DEFINITION_FORMATION_WITH_SPECIFIED_SOURCE ( 'ANY', '', #63, .NOT_KNOWN. ) ;
#34 = CARTESIAN_POINT ( 'NONE',  ( 6.938893903907228378E-15, 4.200000000000001954, 1.387778780781445676E-14 ) ) ;
#35 = SURFACE_SIDE_STYLE ('',( #22 ) ) ;
#36 = DIRECTION ( 'NONE',  ( -1.960049020799458264E-16, -1.665334536937733825E-16, -1.000000000000000000 ) ) ;
#37 = AXIS2_PLACEMENT_3D ( 'NONE', #79, #32, #52 ) ;
#38 = CARTESIAN_POINT ( 'NONE',  ( -0.5500000000000018208, 7.000000000000004441, 0.000000000000000000 ) ) ;
#39 = FACE_OUTER_BOUND ( 'NONE', #14, .T. ) ;
#40 = AXIS2_PLACEMENT_3D ( 'NONE', #38, #191, #83 ) ;
#41 = DIRECTION ( 'NONE',  ( -2.065146995210483709E-16, -1.665334536937734071E-16, -1.000000000000000000 ) ) ;
#42 = CARTESIAN_POINT ( 'NONE',  ( 4.672198949343247993E-17, -5.406425304257242326E-15, 4.200000000000000178 ) ) ;
#43 = EDGE_CURVE ( 'NONE', #55, #11, #119, .T. ) ;
#44 = STYLED_ITEM ( 'NONE', ( #186 ), #69 ) ;
#45 = ORIENTED_EDGE ( 'NONE', *, *, #85, .T. ) ;
#46 = ORIENTED_EDGE ( 'NONE', *, *, #195, .T. ) ;
#47 = AXIS2_PLACEMENT_3D ( 'NONE', #123, #140, #158 ) ;
#48 = FILL_AREA_STYLE_COLOUR ( '', #200 ) ;
#49 = ORIENTED_EDGE ( 'NONE', *, *, #146, .F. ) ;
#50 = DIRECTION ( 'NONE',  ( 1.000000000000000000, -4.259385939352627576E-17, -1.112428321272187978E-17 ) ) ;
#51 = EDGE_CURVE ( 'NONE', #89, #197, #25, .T. ) ;
#52 = DIRECTION ( 'NONE',  ( -1.960049020799458510E-16, -1.665334536937734318E-16, -1.000000000000000000 ) ) ;
#53 = AXIS2_PLACEMENT_3D ( 'NONE', #138, #205, #18 ) ;
#54 = CARTESIAN_POINT ( 'NONE',  ( -0.5499999999999949374, -5.406425304257322790E-15, 4.200000000000013500 ) ) ;
#55 = VERTEX_POINT ( 'NONE', #152 ) ;
#56 = FACE_OUTER_BOUND ( 'NONE', #2, .T. ) ;
#57 = VECTOR ( 'NONE', #190, 1000.000000000000000 ) ;
#58 = LINE ( 'NONE', #122, #88 ) ;
#59 = CARTESIAN_POINT ( 'NONE',  ( 7.206746031746035897, -6.938893903907228378E-15, -1.387778780781445676E-14 ) ) ;
#60 = VECTOR ( 'NONE', #192, 1000.000000000000000 ) ;
#61 = EDGE_CURVE ( 'NONE', #197, #89, #147, .T. ) ;
#62 = DIRECTION ( 'NONE',  ( 1.000000000000000000, -4.259385939352627576E-17, -1.112428321272187978E-17 ) ) ;
#63 = PRODUCT ( '900.405.008.000', '900.405.008.000', '', ( #111 ) ) ;
#64 = AXIS2_PLACEMENT_3D ( 'NONE', #142, #207, #211 ) ;
#65 = CARTESIAN_POINT ( 'NONE',  ( 0.000000000000000000, 0.000000000000000000, 0.000000000000000000 ) ) ;
#66 = EDGE_CURVE ( 'NONE', #137, #118, #28, .T. ) ;
#67 =( NAMED_UNIT ( * ) SI_UNIT ( $, .STERADIAN. ) SOLID_ANGLE_UNIT ( ) );
#68 = FACE_OUTER_BOUND ( 'NONE', #1, .T. ) ;
#69 = MANIFOLD_SOLID_BREP ( 'Rotation1', #72 ) ;
#70 = FILL_AREA_STYLE ('',( #201 ) ) ;
#71 = CARTESIAN_POINT ( 'NONE',  ( 7.206746031746035008, -8.104628079763642745E-15, -7.000000000000016875 ) ) ;
#72 = CLOSED_SHELL ( 'NONE', ( #175, #160, #98, #81, #130, #117 ) ) ;
#73 = CARTESIAN_POINT ( 'NONE',  ( 7.786998248905429550E-17, -4.597230530153409644E-15, 7.000000000000000000 ) ) ;
#74 = CYLINDRICAL_SURFACE ( 'NONE', #155, 7.000000000000002665 ) ;
#75 = AXIS2_PLACEMENT_3D ( 'NONE', #105, #26, #143 ) ;
#76 = EDGE_LOOP ( 'NONE', ( #132, #135 ) ) ;
#77 = DIRECTION ( 'NONE',  ( 1.000000000000000000, -4.259385939352627576E-17, -1.112428321272187978E-17 ) ) ;
#78 = CARTESIAN_POINT ( 'NONE',  ( -1.372034314559621302E-15, -1.165734175856414170E-15, -7.000000000000002665 ) ) ;
#79 = CARTESIAN_POINT ( 'NONE',  ( 0.000000000000000000, 0.000000000000000000, 0.000000000000000000 ) ) ;
#80 = APPLICATION_CONTEXT ( 'automotive_design' ) ;
#81 = ADVANCED_FACE ( 'NONE', ( #68, #115 ), #185, .T. ) ;
#82 = PLANE ( 'NONE',  #40 ) ;
#83 = DIRECTION ( 'NONE',  ( 1.960049020799458264E-16, 1.665334536937734071E-16, 1.000000000000000000 ) ) ;
#84 = LINE ( 'NONE', #71, #92 ) ;
#85 = EDGE_CURVE ( 'NONE', #11, #55, #181, .T. ) ;
#86 = DIRECTION ( 'NONE',  ( 1.000000000000000000, -4.259385939352627576E-17, -1.112428321272187978E-17 ) ) ;
#87 =( NAMED_UNIT ( * ) SI_UNIT ( $, .STERADIAN. ) SOLID_ANGLE_UNIT ( ) );
#88 = VECTOR ( 'NONE', #100, 1000.000000000000000 ) ;
#89 = VERTEX_POINT ( 'NONE', #78 ) ;
#90 = ORIENTED_EDGE ( 'NONE', *, *, #51, .F. ) ;
#91 = CARTESIAN_POINT ( 'NONE',  ( 0.000000000000000000, 0.000000000000000000, 0.000000000000000000 ) ) ;
#92 = VECTOR ( 'NONE', #176, 1000.000000000000000 ) ;
#93 = ORIENTED_EDGE ( 'NONE', *, *, #154, .T. ) ;
#94 = DIRECTION ( 'NONE',  ( 1.000000000000000000, -4.259385939352631274E-17, -1.960049020799458264E-16 ) ) ;
#95 =( NAMED_UNIT ( * ) PLANE_ANGLE_UNIT ( ) SI_UNIT ( $, .RADIAN. ) );
#96 = COLOUR_RGB ( '',0.7529411764705882248, 0.7529411764705882248, 0.7529411764705882248 ) ;
#97 = ORIENTED_EDGE ( 'NONE', *, *, #43, .T. ) ;
#98 = ADVANCED_FACE ( 'NONE', ( #153 ), #3, .F. ) ;
#99 = LINE ( 'NONE', #121, #60 ) ;
#100 = DIRECTION ( 'NONE',  ( 1.000000000000000000, -4.259385939352627576E-17, -1.112428321272187978E-17 ) ) ;
#101 = EDGE_CURVE ( 'NONE', #6, #118, #99, .T. ) ;
#102 = CARTESIAN_POINT ( 'NONE',  ( -0.5499999999999958256, 9.708900350346994262E-15, -4.199999999999987743 ) ) ;
#103 = MECHANICAL_DESIGN_GEOMETRIC_PRESENTATION_REPRESENTATION (  '', ( #128 ), #193 ) ;
#104 = PRODUCT_DEFINITION_SHAPE ( 'NONE', 'NONE',  #145 ) ;
#105 = CARTESIAN_POINT ( 'NONE',  ( 7.206746031746035897, -6.938893903907228378E-15, -1.387778780781445676E-14 ) ) ;
#106 = AXIS2_PLACEMENT_3D ( 'NONE', #210, #86, #9 ) ;
#107 = APPLICATION_PROTOCOL_DEFINITION ( 'draft international standard', 'automotive_design', 1998, #80 ) ;
#108 = ORIENTED_EDGE ( 'NONE', *, *, #61, .F. ) ;
#109 = CARTESIAN_POINT ( 'NONE',  ( 0.000000000000000000, 0.000000000000000000, 0.000000000000000000 ) ) ;
#110 = CIRCLE ( 'NONE', #47, 4.200000000000001066 ) ;
#111 = PRODUCT_CONTEXT ( 'NONE', #80, 'mechanical' ) ;
#112 = ORIENTED_EDGE ( 'NONE', *, *, #206, .T. ) ;
#113 = CARTESIAN_POINT ( 'NONE',  ( -0.5499999999999963807, 9.242606680004428199E-15, -6.999999999999988454 ) ) ;
#114 =( GEOMETRIC_REPRESENTATION_CONTEXT ( 3 ) GLOBAL_UNCERTAINTY_ASSIGNED_CONTEXT ( ( #149 ) ) GLOBAL_UNIT_ASSIGNED_CONTEXT ( ( #8, #209, #87 ) ) REPRESENTATION_CONTEXT ( 'NONE', 'WORKASPACE' ) );
#115 = FACE_BOUND ( 'NONE', #76, .T. ) ;
#116 = ORIENTED_EDGE ( 'NONE', *, *, #101, .T. ) ;
#117 = ADVANCED_FACE ( 'NONE', ( #23, #56 ), #82, .T. ) ;
#118 = VERTEX_POINT ( 'NONE', #42 ) ;
#119 = CIRCLE ( 'NONE', #134, 7.000000000000002665 ) ;
#120 = CYLINDRICAL_SURFACE ( 'NONE', #10, 4.200000000000001954 ) ;
#121 = CARTESIAN_POINT ( 'NONE',  ( 7.206746031746036785, -5.725101742751490399E-15, 4.199999999999988631 ) ) ;
#122 = CARTESIAN_POINT ( 'NONE',  ( 7.206746031746035897, -7.638334409421076683E-15, -4.200000000000016165 ) ) ;
#123 = CARTESIAN_POINT ( 'NONE',  ( -0.5499999999999949374, 1.040834085586084257E-14, 1.387778780781445676E-14 ) ) ;
#124 = SURFACE_STYLE_USAGE ( .BOTH. , #196 ) ;
#125 = EDGE_CURVE ( 'NONE', #127, #137, #58, .T. ) ;
#126 = DIRECTION ( 'NONE',  ( 1.000000000000000000, 0.000000000000000000, 0.000000000000000000 ) ) ;
#127 = VERTEX_POINT ( 'NONE', #102 ) ;
#128 = STYLED_ITEM ( 'NONE', ( #131 ), #214 ) ;
#129 = ORIENTED_EDGE ( 'NONE', *, *, #125, .T. ) ;
#130 = ADVANCED_FACE ( 'NONE', ( #39 ), #74, .T. ) ;
#131 = PRESENTATION_STYLE_ASSIGNMENT (( #124 ) ) ;
#132 = ORIENTED_EDGE ( 'NONE', *, *, #66, .F. ) ;
#133 =( LENGTH_UNIT ( ) NAMED_UNIT ( * ) SI_UNIT ( .MILLI., .METRE. ) );
#134 = AXIS2_PLACEMENT_3D ( 'NONE', #19, #50, #202 ) ;
#135 = ORIENTED_EDGE ( 'NONE', *, *, #154, .F. ) ;
#136 = UNCERTAINTY_MEASURE_WITH_UNIT (LENGTH_MEASURE( 1.000000000000000082E-05 ), #133, 'distance_accuracy_value', 'NONE');
#137 = VERTEX_POINT ( 'NONE', #189 ) ;
#138 = CARTESIAN_POINT ( 'NONE',  ( -0.5499999999999949374, 1.040834085586084257E-14, 1.387778780781445676E-14 ) ) ;
#139 = FACE_OUTER_BOUND ( 'NONE', #187, .T. ) ;
#140 = DIRECTION ( 'NONE',  ( 1.000000000000000000, -4.259385939352627576E-17, -1.112428321272187978E-17 ) ) ;
#141 = APPLICATION_CONTEXT ( 'automotive_design' ) ;
#142 = CARTESIAN_POINT ( 'NONE',  ( -0.5499999999999949374, 1.040834085586084257E-14, 1.387778780781445676E-14 ) ) ;
#143 = DIRECTION ( 'NONE',  ( -2.478176394252580648E-16, -1.665334536937733332E-16, -1.000000000000000000 ) ) ;
#144 = AXIS2_PLACEMENT_3D ( 'NONE', #204, #62, #27 ) ;
#145 = PRODUCT_DEFINITION ( 'UNKNOWN', '', #33, #198 ) ;
#146 = EDGE_CURVE ( 'NONE', #127, #6, #110, .T. ) ;
#147 = CIRCLE ( 'NONE', #31, 7.000000000000002665 ) ;
#148 = FILL_AREA_STYLE ('',( #48 ) ) ;
#149 = UNCERTAINTY_MEASURE_WITH_UNIT (LENGTH_MEASURE( 1.000000000000000082E-05 ), #8, 'distance_accuracy_value', 'NONE');
#150 = AXIS2_PLACEMENT_3D ( 'NONE', #34, #94, #168 ) ;
#151 = DIRECTION ( 'NONE',  ( -1.960049020799458264E-16, -1.665334536937733825E-16, -1.000000000000000000 ) ) ;
#152 = CARTESIAN_POINT ( 'NONE',  ( -0.5499999999999948264, -4.597230530153453032E-15, 7.000000000000014211 ) ) ;
#153 = FACE_OUTER_BOUND ( 'NONE', #194, .T. ) ;
#154 = EDGE_CURVE ( 'NONE', #118, #137, #170, .T. ) ;
#155 = AXIS2_PLACEMENT_3D ( 'NONE', #173, #24, #208 ) ;
#156 = ORIENTED_EDGE ( 'NONE', *, *, #101, .F. ) ;
#157 = CYLINDRICAL_SURFACE ( 'NONE', #75, 7.000000000000002665 ) ;
#158 = DIRECTION ( 'NONE',  ( -2.065146995210484202E-16, -1.665334536937734318E-16, -1.000000000000000000 ) ) ;
#159 = LINE ( 'NONE', #7, #57 ) ;
#160 = ADVANCED_FACE ( 'NONE', ( #139 ), #120, .F. ) ;
#161 =( GEOMETRIC_REPRESENTATION_CONTEXT ( 3 ) GLOBAL_UNCERTAINTY_ASSIGNED_CONTEXT ( ( #182 ) ) GLOBAL_UNIT_ASSIGNED_CONTEXT ( ( #5, #95, #67 ) ) REPRESENTATION_CONTEXT ( 'NONE', 'WORKASPACE' ) );
#162 = ORIENTED_EDGE ( 'NONE', *, *, #61, .T. ) ;
#163 = ORIENTED_EDGE ( 'NONE', *, *, #85, .F. ) ;
#164 = EDGE_LOOP ( 'NONE', ( #17, #16 ) ) ;
#165 = SURFACE_STYLE_USAGE ( .BOTH. , #35 ) ;
#166 = AXIS2_PLACEMENT_3D ( 'NONE', #109, #178, #126 ) ;
#167 = EDGE_LOOP ( 'NONE', ( #45, #46, #90, #12 ) ) ;
#168 = DIRECTION ( 'NONE',  ( -1.960049020799458264E-16, -1.665334536937734071E-16, -1.000000000000000000 ) ) ;
#169 = ORIENTED_EDGE ( 'NONE', *, *, #51, .T. ) ;
#170 = CIRCLE ( 'NONE', #106, 4.200000000000001954 ) ;
#171 = ORIENTED_EDGE ( 'NONE', *, *, #66, .T. ) ;
#172 = FACE_OUTER_BOUND ( 'NONE', #167, .T. ) ;
#173 = CARTESIAN_POINT ( 'NONE',  ( 7.206746031746035897, -6.938893903907228378E-15, -1.387778780781445676E-14 ) ) ;
#174 = DIRECTION ( 'NONE',  ( 1.000000000000000000, -4.259385939352627576E-17, -1.112428321272187978E-17 ) ) ;
#175 = ADVANCED_FACE ( 'NONE', ( #172 ), #157, .T. ) ;
#176 = DIRECTION ( 'NONE',  ( 1.000000000000000000, -4.259385939352627576E-17, -1.112428321272187978E-17 ) ) ;
#177 = CIRCLE ( 'NONE', #64, 4.200000000000001066 ) ;
#178 = DIRECTION ( 'NONE',  ( 0.000000000000000000, 0.000000000000000000, 1.000000000000000000 ) ) ;
#179 = ORIENTED_EDGE ( 'NONE', *, *, #195, .F. ) ;
#180 = SHAPE_DEFINITION_REPRESENTATION ( #104, #214 ) ;
#181 = CIRCLE ( 'NONE', #53, 7.000000000000002665 ) ;
#182 = UNCERTAINTY_MEASURE_WITH_UNIT (LENGTH_MEASURE( 1.000000000000000082E-05 ), #5, 'distance_accuracy_value', 'NONE');
#183 = DIRECTION ( 'NONE',  ( 1.000000000000000000, -4.259385939352627576E-17, -1.112428321272187978E-17 ) ) ;
#184 = ORIENTED_EDGE ( 'NONE', *, *, #125, .F. ) ;
#185 = PLANE ( 'NONE',  #150 ) ;
#186 = PRESENTATION_STYLE_ASSIGNMENT (( #165 ) ) ;
#187 = EDGE_LOOP ( 'NONE', ( #30, #116, #93, #184 ) ) ;
#188 = PRESENTATION_LAYER_ASSIGNMENT (  '', '', ( #128 ) ) ;
#189 = CARTESIAN_POINT ( 'NONE',  ( -8.232205887357729786E-16, -6.994405055138486994E-16, -4.200000000000001954 ) ) ;
#190 = DIRECTION ( 'NONE',  ( 1.000000000000000000, -4.259385939352627576E-17, -1.112428321272187978E-17 ) ) ;
#191 = DIRECTION ( 'NONE',  ( -1.000000000000000000, 4.259385939352631274E-17, 1.960049020799458264E-16 ) ) ;
#192 = DIRECTION ( 'NONE',  ( 1.000000000000000000, -4.259385939352627576E-17, -1.112428321272187978E-17 ) ) ;
#193 =( GEOMETRIC_REPRESENTATION_CONTEXT ( 3 ) GLOBAL_UNCERTAINTY_ASSIGNED_CONTEXT ( ( #136 ) ) GLOBAL_UNIT_ASSIGNED_CONTEXT ( ( #133, #199, #13 ) ) REPRESENTATION_CONTEXT ( 'NONE', 'WORKASPACE' ) );
#194 = EDGE_LOOP ( 'NONE', ( #156, #49, #129, #171 ) ) ;
#195 = EDGE_CURVE ( 'NONE', #55, #197, #159, .T. ) ;
#196 = SURFACE_SIDE_STYLE ('',( #213 ) ) ;
#197 = VERTEX_POINT ( 'NONE', #73 ) ;
#198 = PRODUCT_DEFINITION_CONTEXT ( 'detailed design', #141, 'design' ) ;
#199 =( NAMED_UNIT ( * ) PLANE_ANGLE_UNIT ( ) SI_UNIT ( $, .RADIAN. ) );
#200 = COLOUR_RGB ( '',0.7529411764705882248, 0.7529411764705882248, 0.7529411764705882248 ) ;
#201 = FILL_AREA_STYLE_COLOUR ( '', #96 ) ;
#202 = DIRECTION ( 'NONE',  ( -2.013518320330221746E-16, -1.665334536937733332E-16, -1.000000000000000000 ) ) ;
#203 = EDGE_CURVE ( 'NONE', #6, #127, #177, .T. ) ;
#204 = CARTESIAN_POINT ( 'NONE',  ( 7.206746031746035897, -6.938893903907228378E-15, -1.387778780781445676E-14 ) ) ;
#205 = DIRECTION ( 'NONE',  ( 1.000000000000000000, -4.259385939352627576E-17, -1.112428321272187978E-17 ) ) ;
#206 = EDGE_CURVE ( 'NONE', #11, #89, #84, .T. ) ;
#207 = DIRECTION ( 'NONE',  ( 1.000000000000000000, -4.259385939352627576E-17, -1.112428321272187978E-17 ) ) ;
#208 = DIRECTION ( 'NONE',  ( -2.478176394252580648E-16, -1.665334536937733332E-16, -1.000000000000000000 ) ) ;
#209 =( NAMED_UNIT ( * ) PLANE_ANGLE_UNIT ( ) SI_UNIT ( $, .RADIAN. ) );
#210 = CARTESIAN_POINT ( 'NONE',  ( 0.000000000000000000, 0.000000000000000000, 0.000000000000000000 ) ) ;
#211 = DIRECTION ( 'NONE',  ( -2.065146995210484202E-16, -1.665334536937734318E-16, -1.000000000000000000 ) ) ;
#212 = PRESENTATION_LAYER_ASSIGNMENT (  '', '', ( #44 ) ) ;
#213 = SURFACE_STYLE_FILL_AREA ( #148 ) ;
#214 = ADVANCED_BREP_SHAPE_REPRESENTATION ( '900.405.008.000', ( #69, #166 ), #114 ) ;
ENDSEC;
END-ISO-10303-21;
