ISO-10303-21;
HEADER;
FILE_DESCRIPTION (( 'STEP AP214' ),
    '1' );
FILE_NAME ('900.405.010.000.STEP',
    '2024-06-19T10:26:47',
    ( '' ),
    ( '' ),
    'SwSTEP 2.0',
    'SolidWorks 2022',
    '' );
FILE_SCHEMA (( 'AUTOMOTIVE_DESIGN' ));
ENDSEC;

DATA;
#1 = UNCERTAINTY_MEASURE_WITH_UNIT (LENGTH_MEASURE( 1.000000000000000082E-05 ), #33, 'distance_accuracy_value', 'NONE');
#2 = EDGE_CURVE ( 'NONE', #23, #54, #76, .T. ) ;
#3 = EDGE_LOOP ( 'NONE', ( #138, #153 ) ) ;
#4 = CIRCLE ( 'NONE', #187, 5.249999999999998224 ) ;
#5 = ORIENTED_EDGE ( 'NONE', *, *, #41, .F. ) ;
#6 = FACE_OUTER_BOUND ( 'NONE', #46, .T. ) ;
#7 =( GEOMETRIC_REPRESENTATION_CONTEXT ( 3 ) GLOBAL_UNCERTAINTY_ASSIGNED_CONTEXT ( ( #1 ) ) GLOBAL_UNIT_ASSIGNED_CONTEXT ( ( #33, #149, #179 ) ) REPRESENTATION_CONTEXT ( 'NONE', 'WORKASPACE' ) );
#8 =( GEOMETRIC_REPRESENTATION_CONTEXT ( 3 ) GLOBAL_UNCERTAINTY_ASSIGNED_CONTEXT ( ( #135 ) ) GLOBAL_UNIT_ASSIGNED_CONTEXT ( ( #160, #79, #113 ) ) REPRESENTATION_CONTEXT ( 'NONE', 'WORKASPACE' ) );
#9 = ORIENTED_EDGE ( 'NONE', *, *, #34, .F. ) ;
#10 = DIRECTION ( 'NONE',  ( 1.000000000000000000, -4.116626217457494562E-17, -3.702524192079764128E-17 ) ) ;
#11 = PRESENTATION_STYLE_ASSIGNMENT (( #177 ) ) ;
#12 = ORIENTED_EDGE ( 'NONE', *, *, #119, .T. ) ;
#13 =( NAMED_UNIT ( * ) PLANE_ANGLE_UNIT ( ) SI_UNIT ( $, .RADIAN. ) );
#14 = CARTESIAN_POINT ( 'NONE',  ( -0.6999999999999992895, 8.499999999999992895, 0.000000000000000000 ) ) ;
#15 = EDGE_CURVE ( 'NONE', #73, #176, #150, .T. ) ;
#16 = PRESENTATION_STYLE_ASSIGNMENT (( #84 ) ) ;
#17 = DIRECTION ( 'NONE',  ( 5.775242064348984914E-17, 0.000000000000000000, -1.000000000000000000 ) ) ;
#18 = EDGE_LOOP ( 'NONE', ( #39, #37, #38, #173 ) ) ;
#19 = COLOUR_RGB ( '',0.6862745098039215730, 0.6078431372549019107, 0.5294117647058823595 ) ;
#20 = EDGE_CURVE ( 'NONE', #176, #136, #92, .T. ) ;
#21 = VECTOR ( 'NONE', #123, 1000.000000000000000 ) ;
#22 = VERTEX_POINT ( 'NONE', #80 ) ;
#23 = VERTEX_POINT ( 'NONE', #155 ) ;
#24 = EDGE_LOOP ( 'NONE', ( #91, #72 ) ) ;
#25 = AXIS2_PLACEMENT_3D ( 'NONE', #82, #43, #189 ) ;
#26 = CARTESIAN_POINT ( 'NONE',  ( 7.206746031746038561, 1.491873758708970867E-14, 8.499999999999994671 ) ) ;
#27 = ADVANCED_FACE ( 'NONE', ( #6 ), #96, .T. ) ;
#28 = ORIENTED_EDGE ( 'NONE', *, *, #199, .F. ) ;
#29 = SURFACE_SIDE_STYLE ('',( #190 ) ) ;
#30 = FILL_AREA_STYLE_COLOUR ( '', #19 ) ;
#31 = AXIS2_PLACEMENT_3D ( 'NONE', #172, #42, #200 ) ;
#32 = LINE ( 'NONE', #49, #156 ) ;
#33 =( LENGTH_UNIT ( ) NAMED_UNIT ( * ) SI_UNIT ( .MILLI., .METRE. ) );
#34 = EDGE_CURVE ( 'NONE', #176, #73, #97, .T. ) ;
#35 = EDGE_CURVE ( 'NONE', #105, #23, #59, .T. ) ;
#36 = AXIS2_PLACEMENT_3D ( 'NONE', #112, #74, #111 ) ;
#37 = ORIENTED_EDGE ( 'NONE', *, *, #191, .T. ) ;
#38 = ORIENTED_EDGE ( 'NONE', *, *, #165, .T. ) ;
#39 = ORIENTED_EDGE ( 'NONE', *, *, #119, .F. ) ;
#40 = AXIS2_PLACEMENT_3D ( 'NONE', #47, #205, #45 ) ;
#41 = EDGE_CURVE ( 'NONE', #105, #107, #4, .T. ) ;
#42 = DIRECTION ( 'NONE',  ( 1.000000000000000000, -4.116626217457494562E-17, -3.702524192079764128E-17 ) ) ;
#43 = DIRECTION ( 'NONE',  ( 1.000000000000000000, -4.116626217457494562E-17, -3.702524192079764128E-17 ) ) ;
#44 = CARTESIAN_POINT ( 'NONE',  ( 0.000000000000000000, 5.249999999999997335, -1.734723475976807094E-15 ) ) ;
#45 = DIRECTION ( 'NONE',  ( 1.000000000000000000, 0.000000000000000000, 0.000000000000000000 ) ) ;
#46 = EDGE_LOOP ( 'NONE', ( #166, #90, #167, #28 ) ) ;
#47 = CARTESIAN_POINT ( 'NONE',  ( 0.000000000000000000, 0.000000000000000000, 0.000000000000000000 ) ) ;
#48 = CARTESIAN_POINT ( 'NONE',  ( -0.7000000000000061728, 1.387778780781445676E-14, 0.000000000000000000 ) ) ;
#49 = CARTESIAN_POINT ( 'NONE',  ( 7.206746031746040337, 1.387778780781445676E-14, -8.499999999999998224 ) ) ;
#50 = PRESENTATION_LAYER_ASSIGNMENT (  '', '', ( #137 ) ) ;
#51 = SURFACE_SIDE_STYLE ('',( #209 ) ) ;
#52 = APPLICATION_CONTEXT ( 'automotive_design' ) ;
#53 = CIRCLE ( 'NONE', #186, 5.249999999999998224 ) ;
#54 = VERTEX_POINT ( 'NONE', #144 ) ;
#55 = ORIENTED_EDGE ( 'NONE', *, *, #184, .F. ) ;
#56 = AXIS2_PLACEMENT_3D ( 'NONE', #130, #117, #185 ) ;
#57 = FACE_OUTER_BOUND ( 'NONE', #134, .T. ) ;
#58 = AXIS2_PLACEMENT_3D ( 'NONE', #75, #161, #108 ) ;
#59 = LINE ( 'NONE', #203, #21 ) ;
#60 = FACE_OUTER_BOUND ( 'NONE', #24, .T. ) ;
#61 = SHAPE_DEFINITION_REPRESENTATION ( #114, #68 ) ;
#62 = DIRECTION ( 'NONE',  ( 1.000000000000000000, -4.116626217457494562E-17, -3.702524192079764128E-17 ) ) ;
#63 = DIRECTION ( 'NONE',  ( 5.775242064348982448E-17, 0.000000000000000000, -1.000000000000000000 ) ) ;
#64 = DIRECTION ( 'NONE',  ( 5.775242064348984914E-17, 0.000000000000000000, -1.000000000000000000 ) ) ;
#65 = CARTESIAN_POINT ( 'NONE',  ( -0.7000000000000058398, 1.522982057541924499E-14, 8.499999999999998224 ) ) ;
#66 = DIRECTION ( 'NONE',  ( 1.000000000000000000, -4.116626217457494562E-17, -3.702524192079764128E-17 ) ) ;
#67 = CARTESIAN_POINT ( 'NONE',  ( 0.000000000000000000, 0.000000000000000000, 0.000000000000000000 ) ) ;
#68 = ADVANCED_BREP_SHAPE_REPRESENTATION ( '900.405.010.000', ( #171, #40 ), #110 ) ;
#69 = CLOSED_SHELL ( 'NONE', ( #78, #168, #201, #140, #27, #71 ) ) ;
#70 = ORIENTED_EDGE ( 'NONE', *, *, #41, .T. ) ;
#71 = ADVANCED_FACE ( 'NONE', ( #60, #206 ), #124, .T. ) ;
#72 = ORIENTED_EDGE ( 'NONE', *, *, #199, .T. ) ;
#73 = VERTEX_POINT ( 'NONE', #81 ) ;
#74 = DIRECTION ( 'NONE',  ( 1.000000000000000000, -4.116626217457494562E-17, -3.702524192079764128E-17 ) ) ;
#75 = CARTESIAN_POINT ( 'NONE',  ( 7.206746031746039449, 1.387778780781445676E-14, -1.734723475976807094E-15 ) ) ;
#76 = CIRCLE ( 'NONE', #31, 5.249999999999998224 ) ;
#77 = COLOUR_RGB ( '',0.6862745098039215730, 0.6078431372549019107, 0.5294117647058823595 ) ;
#78 = ADVANCED_FACE ( 'NONE', ( #127 ), #143, .T. ) ;
#79 =( NAMED_UNIT ( * ) PLANE_ANGLE_UNIT ( ) SI_UNIT ( $, .RADIAN. ) );
#80 = CARTESIAN_POINT ( 'NONE',  ( 4.908955754696634835E-16, 0.000000000000000000, -8.499999999999996447 ) ) ;
#81 = CARTESIAN_POINT ( 'NONE',  ( -0.7000000000000056177, 1.387778780781445676E-14, -8.499999999999996447 ) ) ;
#82 = CARTESIAN_POINT ( 'NONE',  ( -0.7000000000000061728, 1.387778780781445676E-14, 0.000000000000000000 ) ) ;
#83 = CARTESIAN_POINT ( 'NONE',  ( 0.000000000000000000, 0.000000000000000000, 0.000000000000000000 ) ) ;
#84 = SURFACE_STYLE_USAGE ( .BOTH. , #51 ) ;
#85 = FACE_OUTER_BOUND ( 'NONE', #18, .T. ) ;
#86 = AXIS2_PLACEMENT_3D ( 'NONE', #94, #159, #204 ) ;
#87 = DIRECTION ( 'NONE',  ( 1.000000000000000000, -4.116626217457494562E-17, -3.702524192079764128E-17 ) ) ;
#88 = AXIS2_PLACEMENT_3D ( 'NONE', #14, #129, #214 ) ;
#89 = MECHANICAL_DESIGN_GEOMETRIC_PRESENTATION_REPRESENTATION (  '', ( #99 ), #8 ) ;
#90 = ORIENTED_EDGE ( 'NONE', *, *, #34, .T. ) ;
#91 = ORIENTED_EDGE ( 'NONE', *, *, #157, .T. ) ;
#92 = LINE ( 'NONE', #26, #132 ) ;
#93 = AXIS2_PLACEMENT_3D ( 'NONE', #44, #109, #63 ) ;
#94 = CARTESIAN_POINT ( 'NONE',  ( 7.206746031746039449, 1.387778780781445676E-14, -1.734723475976807094E-15 ) ) ;
#95 = FILL_AREA_STYLE ('',( #98 ) ) ;
#96 = CYLINDRICAL_SURFACE ( 'NONE', #58, 8.499999999999996447 ) ;
#97 = CIRCLE ( 'NONE', #207, 8.499999999999996447 ) ;
#98 = FILL_AREA_STYLE_COLOUR ( '', #77 ) ;
#99 = STYLED_ITEM ( 'NONE', ( #11 ), #68 ) ;
#100 = CYLINDRICAL_SURFACE ( 'NONE', #56, 5.249999999999998224 ) ;
#101 = CARTESIAN_POINT ( 'NONE',  ( 7.206746031746039449, 1.387778780781445676E-14, -1.734723475976807094E-15 ) ) ;
#102 = PRODUCT_DEFINITION_CONTEXT ( 'detailed design', #52, 'design' ) ;
#103 = EDGE_LOOP ( 'NONE', ( #104, #5, #151, #170 ) ) ;
#104 = ORIENTED_EDGE ( 'NONE', *, *, #191, .F. ) ;
#105 = VERTEX_POINT ( 'NONE', #125 ) ;
#106 = ORIENTED_EDGE ( 'NONE', *, *, #157, .F. ) ;
#107 = VERTEX_POINT ( 'NONE', #194 ) ;
#108 = DIRECTION ( 'NONE',  ( 1.020425574104004615E-16, 0.000000000000000000, -1.000000000000000000 ) ) ;
#109 = DIRECTION ( 'NONE',  ( 1.000000000000000000, -4.116626217457493946E-17, 5.775242064348982448E-17 ) ) ;
#110 =( GEOMETRIC_REPRESENTATION_CONTEXT ( 3 ) GLOBAL_UNCERTAINTY_ASSIGNED_CONTEXT ( ( #118 ) ) GLOBAL_UNIT_ASSIGNED_CONTEXT ( ( #164, #13, #208 ) ) REPRESENTATION_CONTEXT ( 'NONE', 'WORKASPACE' ) );
#111 = DIRECTION ( 'NONE',  ( 6.195440985631456550E-17, 0.000000000000000000, -1.000000000000000000 ) ) ;
#112 = CARTESIAN_POINT ( 'NONE',  ( -0.6999999999999992895, 1.387778780781445676E-14, -3.469446951953614189E-15 ) ) ;
#113 =( NAMED_UNIT ( * ) SI_UNIT ( $, .STERADIAN. ) SOLID_ANGLE_UNIT ( ) );
#114 = PRODUCT_DEFINITION_SHAPE ( 'NONE', 'NONE',  #178 ) ;
#115 = AXIS2_PLACEMENT_3D ( 'NONE', #101, #211, #162 ) ;
#116 = LINE ( 'NONE', #212, #133 ) ;
#117 = DIRECTION ( 'NONE',  ( 1.000000000000000000, -4.116626217457494562E-17, -3.702524192079764128E-17 ) ) ;
#118 = UNCERTAINTY_MEASURE_WITH_UNIT (LENGTH_MEASURE( 1.000000000000000082E-05 ), #164, 'distance_accuracy_value', 'NONE');
#119 = EDGE_CURVE ( 'NONE', #107, #105, #145, .T. ) ;
#120 = AXIS2_PLACEMENT_3D ( 'NONE', #83, #182, #17 ) ;
#121 = ORIENTED_EDGE ( 'NONE', *, *, #15, .T. ) ;
#122 = PLANE ( 'NONE',  #88 ) ;
#123 = DIRECTION ( 'NONE',  ( 1.000000000000000000, -4.116626217457494562E-17, -3.702524192079764128E-17 ) ) ;
#124 = PLANE ( 'NONE',  #93 ) ;
#125 = CARTESIAN_POINT ( 'NONE',  ( -0.6999999999999989564, 1.387778780781445676E-14, -5.250000000000001776 ) ) ;
#126 = PRODUCT_CONTEXT ( 'NONE', #169, 'mechanical' ) ;
#127 = FACE_OUTER_BOUND ( 'NONE', #154, .T. ) ;
#128 = APPLICATION_PROTOCOL_DEFINITION ( 'draft international standard', 'automotive_design', 1998, #169 ) ;
#129 = DIRECTION ( 'NONE',  ( -1.000000000000000000, 4.116626217457493946E-17, -5.775242064348982448E-17 ) ) ;
#130 = CARTESIAN_POINT ( 'NONE',  ( 7.206746031746039449, 1.387778780781445676E-14, -1.734723475976807094E-15 ) ) ;
#131 = FACE_OUTER_BOUND ( 'NONE', #103, .T. ) ;
#132 = VECTOR ( 'NONE', #62, 1000.000000000000000 ) ;
#133 = VECTOR ( 'NONE', #66, 1000.000000000000000 ) ;
#134 = EDGE_LOOP ( 'NONE', ( #195, #9 ) ) ;
#135 = UNCERTAINTY_MEASURE_WITH_UNIT (LENGTH_MEASURE( 1.000000000000000082E-05 ), #160, 'distance_accuracy_value', 'NONE');
#136 = VERTEX_POINT ( 'NONE', #175 ) ;
#137 = STYLED_ITEM ( 'NONE', ( #16 ), #171 ) ;
#138 = ORIENTED_EDGE ( 'NONE', *, *, #2, .F. ) ;
#139 = FACE_BOUND ( 'NONE', #193, .T. ) ;
#140 = ADVANCED_FACE ( 'NONE', ( #139, #57 ), #122, .T. ) ;
#141 = DIRECTION ( 'NONE',  ( 1.000000000000000000, -4.116626217457494562E-17, -3.702524192079764128E-17 ) ) ;
#142 = ORIENTED_EDGE ( 'NONE', *, *, #20, .T. ) ;
#143 = CYLINDRICAL_SURFACE ( 'NONE', #86, 8.499999999999996447 ) ;
#144 = CARTESIAN_POINT ( 'NONE',  ( 1.943825200841881775E-16, 1.483181036569635892E-14, 5.249999999999999112 ) ) ;
#145 = CIRCLE ( 'NONE', #36, 5.249999999999998224 ) ;
#146 = DIRECTION ( 'NONE',  ( 1.000000000000000000, -4.116626217457494562E-17, -3.702524192079764128E-17 ) ) ;
#147 = CYLINDRICAL_SURFACE ( 'NONE', #115, 5.249999999999998224 ) ;
#148 = AXIS2_PLACEMENT_3D ( 'NONE', #67, #146, #64 ) ;
#149 =( NAMED_UNIT ( * ) PLANE_ANGLE_UNIT ( ) SI_UNIT ( $, .RADIAN. ) );
#150 = CIRCLE ( 'NONE', #25, 8.499999999999996447 ) ;
#151 = ORIENTED_EDGE ( 'NONE', *, *, #35, .T. ) ;
#152 = PRODUCT_RELATED_PRODUCT_CATEGORY ( 'part', '', ( #210 ) ) ;
#153 = ORIENTED_EDGE ( 'NONE', *, *, #165, .F. ) ;
#154 = EDGE_LOOP ( 'NONE', ( #121, #142, #106, #55 ) ) ;
#155 = CARTESIAN_POINT ( 'NONE',  ( 3.032002083783215169E-16, 0.000000000000000000, -5.249999999999998224 ) ) ;
#156 = VECTOR ( 'NONE', #196, 1000.000000000000000 ) ;
#157 = EDGE_CURVE ( 'NONE', #22, #136, #180, .T. ) ;
#158 = APPLICATION_PROTOCOL_DEFINITION ( 'draft international standard', 'automotive_design', 1998, #52 ) ;
#159 = DIRECTION ( 'NONE',  ( 1.000000000000000000, -4.116626217457494562E-17, -3.702524192079764128E-17 ) ) ;
#160 =( LENGTH_UNIT ( ) NAMED_UNIT ( * ) SI_UNIT ( .MILLI., .METRE. ) );
#161 = DIRECTION ( 'NONE',  ( 1.000000000000000000, -4.116626217457494562E-17, -3.702524192079764128E-17 ) ) ;
#162 = DIRECTION ( 'NONE',  ( 0.000000000000000000, 0.000000000000000000, -1.000000000000000000 ) ) ;
#163 = DIRECTION ( 'NONE',  ( 5.775242064348983681E-17, 0.000000000000000000, -1.000000000000000000 ) ) ;
#164 =( LENGTH_UNIT ( ) NAMED_UNIT ( * ) SI_UNIT ( .MILLI., .METRE. ) );
#165 = EDGE_CURVE ( 'NONE', #54, #23, #53, .T. ) ;
#166 = ORIENTED_EDGE ( 'NONE', *, *, #20, .F. ) ;
#167 = ORIENTED_EDGE ( 'NONE', *, *, #184, .T. ) ;
#168 = ADVANCED_FACE ( 'NONE', ( #85 ), #147, .F. ) ;
#169 = APPLICATION_CONTEXT ( 'automotive_design' ) ;
#170 = ORIENTED_EDGE ( 'NONE', *, *, #2, .T. ) ;
#171 = MANIFOLD_SOLID_BREP ( 'Rotation1', #69 ) ;
#172 = CARTESIAN_POINT ( 'NONE',  ( 0.000000000000000000, 0.000000000000000000, 0.000000000000000000 ) ) ;
#173 = ORIENTED_EDGE ( 'NONE', *, *, #35, .F. ) ;
#174 = DIRECTION ( 'NONE',  ( 6.195440985631456550E-17, 0.000000000000000000, -1.000000000000000000 ) ) ;
#175 = CARTESIAN_POINT ( 'NONE',  ( 3.147145563267805795E-16, 1.522982057541925130E-14, 8.499999999999998224 ) ) ;
#176 = VERTEX_POINT ( 'NONE', #65 ) ;
#177 = SURFACE_STYLE_USAGE ( .BOTH. , #29 ) ;
#178 = PRODUCT_DEFINITION ( 'UNKNOWN', '', #188, #102 ) ;
#179 =( NAMED_UNIT ( * ) SI_UNIT ( $, .STERADIAN. ) SOLID_ANGLE_UNIT ( ) );
#180 = CIRCLE ( 'NONE', #148, 8.499999999999996447 ) ;
#181 = PRESENTATION_LAYER_ASSIGNMENT (  '', '', ( #99 ) ) ;
#182 = DIRECTION ( 'NONE',  ( 1.000000000000000000, -4.116626217457494562E-17, -3.702524192079764128E-17 ) ) ;
#183 = FILL_AREA_STYLE ('',( #30 ) ) ;
#184 = EDGE_CURVE ( 'NONE', #73, #22, #32, .T. ) ;
#185 = DIRECTION ( 'NONE',  ( 0.000000000000000000, 0.000000000000000000, -1.000000000000000000 ) ) ;
#186 = AXIS2_PLACEMENT_3D ( 'NONE', #198, #87, #163 ) ;
#187 = AXIS2_PLACEMENT_3D ( 'NONE', #192, #10, #174 ) ;
#188 = PRODUCT_DEFINITION_FORMATION_WITH_SPECIFIED_SOURCE ( 'ANY', '', #210, .NOT_KNOWN. ) ;
#189 = DIRECTION ( 'NONE',  ( 6.377659838150028693E-17, 0.000000000000000000, -1.000000000000000000 ) ) ;
#190 = SURFACE_STYLE_FILL_AREA ( #95 ) ;
#191 = EDGE_CURVE ( 'NONE', #107, #54, #116, .T. ) ;
#192 = CARTESIAN_POINT ( 'NONE',  ( -0.6999999999999992895, 1.387778780781445676E-14, -3.469446951953614189E-15 ) ) ;
#193 = EDGE_LOOP ( 'NONE', ( #70, #12 ) ) ;
#194 = CARTESIAN_POINT ( 'NONE',  ( -0.6999999999999990674, 1.483181036569635260E-14, 5.249999999999995559 ) ) ;
#195 = ORIENTED_EDGE ( 'NONE', *, *, #15, .F. ) ;
#196 = DIRECTION ( 'NONE',  ( 1.000000000000000000, -4.116626217457494562E-17, -3.702524192079764128E-17 ) ) ;
#197 = MECHANICAL_DESIGN_GEOMETRIC_PRESENTATION_REPRESENTATION (  '', ( #137 ), #7 ) ;
#198 = CARTESIAN_POINT ( 'NONE',  ( 0.000000000000000000, 0.000000000000000000, 0.000000000000000000 ) ) ;
#199 = EDGE_CURVE ( 'NONE', #136, #22, #213, .T. ) ;
#200 = DIRECTION ( 'NONE',  ( 5.775242064348983681E-17, 0.000000000000000000, -1.000000000000000000 ) ) ;
#201 = ADVANCED_FACE ( 'NONE', ( #131 ), #100, .F. ) ;
#202 = DIRECTION ( 'NONE',  ( 6.377659838150028693E-17, 0.000000000000000000, -1.000000000000000000 ) ) ;
#203 = CARTESIAN_POINT ( 'NONE',  ( 7.206746031746039449, 1.387778780781445676E-14, -5.250000000000000000 ) ) ;
#204 = DIRECTION ( 'NONE',  ( 1.020425574104004615E-16, 0.000000000000000000, -1.000000000000000000 ) ) ;
#205 = DIRECTION ( 'NONE',  ( 0.000000000000000000, 0.000000000000000000, 1.000000000000000000 ) ) ;
#206 = FACE_BOUND ( 'NONE', #3, .T. ) ;
#207 = AXIS2_PLACEMENT_3D ( 'NONE', #48, #141, #202 ) ;
#208 =( NAMED_UNIT ( * ) SI_UNIT ( $, .STERADIAN. ) SOLID_ANGLE_UNIT ( ) );
#209 = SURFACE_STYLE_FILL_AREA ( #183 ) ;
#210 = PRODUCT ( '900.405.010.000', '900.405.010.000', '', ( #126 ) ) ;
#211 = DIRECTION ( 'NONE',  ( 1.000000000000000000, -4.116626217457494562E-17, -3.702524192079764128E-17 ) ) ;
#212 = CARTESIAN_POINT ( 'NONE',  ( 7.206746031746039449, 1.452072737736681628E-14, 5.249999999999996447 ) ) ;
#213 = CIRCLE ( 'NONE', #120, 8.499999999999996447 ) ;
#214 = DIRECTION ( 'NONE',  ( -5.775242064348982448E-17, 0.000000000000000000, 1.000000000000000000 ) ) ;
ENDSEC;
END-ISO-10303-21;
