ISO-10303-21;
HEADER;
FILE_DESCRIPTION (( 'STEP AP214' ),
    '1' );
FILE_NAME ('900.405.012.000.STEP',
    '2024-06-19T09:34:48',
    ( '' ),
    ( '' ),
    'SwSTEP 2.0',
    'SolidWorks 2022',
    '' );
FILE_SCHEMA (( 'AUTOMOTIVE_DESIGN' ));
ENDSEC;

DATA;
#1 = CARTESIAN_POINT ( 'NONE',  ( 7.206746031746035897, 0.000000000000000000, 0.000000000000000000 ) ) ;
#2 = UNCERTAINTY_MEASURE_WITH_UNIT (LENGTH_MEASURE( 1.000000000000000082E-05 ), #185, 'distance_accuracy_value', 'NONE');
#3 = CARTESIAN_POINT ( 'NONE',  ( 0.000000000000000000, 0.000000000000000000, 0.000000000000000000 ) ) ;
#4 = ORIENTED_EDGE ( 'NONE', *, *, #150, .T. ) ;
#5 = UNCERTAINTY_MEASURE_WITH_UNIT (LENGTH_MEASURE( 1.000000000000000082E-05 ), #49, 'distance_accuracy_value', 'NONE');
#6 = DIRECTION ( 'NONE',  ( 0.000000000000000000, 0.000000000000000000, -1.000000000000000000 ) ) ;
#7 = AXIS2_PLACEMENT_3D ( 'NONE', #99, #181, #86 ) ;
#8 = ORIENTED_EDGE ( 'NONE', *, *, #102, .F. ) ;
#9 = SURFACE_SIDE_STYLE ('',( #85 ) ) ;
#10 = PRESENTATION_STYLE_ASSIGNMENT (( #125 ) ) ;
#11 = CYLINDRICAL_SURFACE ( 'NONE', #7, 10.49999999999999822 ) ;
#12 = AXIS2_PLACEMENT_3D ( 'NONE', #47, #117, #97 ) ;
#13 = CARTESIAN_POINT ( 'NONE',  ( 7.206746031746035897, 0.000000000000000000, -10.49999999999999822 ) ) ;
#14 = PLANE ( 'NONE',  #144 ) ;
#15 = DIRECTION ( 'NONE',  ( 1.000000000000000000, -0.000000000000000000, -0.000000000000000000 ) ) ;
#16 = AXIS2_PLACEMENT_3D ( 'NONE', #198, #163, #96 ) ;
#17 = CARTESIAN_POINT ( 'NONE',  ( 0.000000000000000000, 7.960204194457794491E-16, 6.499999999999999112 ) ) ;
#18 = ORIENTED_EDGE ( 'NONE', *, *, #63, .T. ) ;
#19 = PRODUCT_DEFINITION ( 'UNKNOWN', '', #45, #116 ) ;
#20 = PRODUCT ( '900.405.012.000', '900.405.012.000', '', ( #39 ) ) ;
#21 = CLOSED_SHELL ( 'NONE', ( #77, #38, #120, #192, #206, #210 ) ) ;
#22 = FACE_OUTER_BOUND ( 'NONE', #88, .T. ) ;
#23 = CYLINDRICAL_SURFACE ( 'NONE', #36, 6.499999999999999112 ) ;
#24 = LINE ( 'NONE', #13, #189 ) ;
#25 = EDGE_CURVE ( 'NONE', #89, #113, #153, .T. ) ;
#26 = DIRECTION ( 'NONE',  ( 0.000000000000000000, 0.000000000000000000, 1.000000000000000000 ) ) ;
#27 = CARTESIAN_POINT ( 'NONE',  ( 0.000000000000000000, 0.000000000000000000, -6.499999999999999112 ) ) ;
#28 = CARTESIAN_POINT ( 'NONE',  ( 7.206746031746035897, 0.000000000000000000, -6.499999999999999112 ) ) ;
#29 = DIRECTION ( 'NONE',  ( 0.000000000000000000, 0.000000000000000000, -1.000000000000000000 ) ) ;
#30 = ORIENTED_EDGE ( 'NONE', *, *, #25, .T. ) ;
#31 = DIRECTION ( 'NONE',  ( 1.000000000000000000, 0.000000000000000000, -0.000000000000000000 ) ) ;
#32 = FACE_OUTER_BOUND ( 'NONE', #78, .T. ) ;
#33 = AXIS2_PLACEMENT_3D ( 'NONE', #122, #200, #169 ) ;
#34 = SURFACE_STYLE_USAGE ( .BOTH. , #9 ) ;
#35 = VERTEX_POINT ( 'NONE', #108 ) ;
#36 = AXIS2_PLACEMENT_3D ( 'NONE', #138, #92, #72 ) ;
#37 = EDGE_LOOP ( 'NONE', ( #184, #98, #4, #172 ) ) ;
#38 = ADVANCED_FACE ( 'NONE', ( #46 ), #44, .F. ) ;
#39 = PRODUCT_CONTEXT ( 'NONE', #194, 'mechanical' ) ;
#40 = CIRCLE ( 'NONE', #148, 10.49999999999999822 ) ;
#41 = FILL_AREA_STYLE_COLOUR ( '', #50 ) ;
#42 = LINE ( 'NONE', #179, #58 ) ;
#43 = FILL_AREA_STYLE ('',( #41 ) ) ;
#44 = CYLINDRICAL_SURFACE ( 'NONE', #176, 6.499999999999999112 ) ;
#45 = PRODUCT_DEFINITION_FORMATION_WITH_SPECIFIED_SOURCE ( 'ANY', '', #20, .NOT_KNOWN. ) ;
#46 = FACE_OUTER_BOUND ( 'NONE', #37, .T. ) ;
#47 = CARTESIAN_POINT ( 'NONE',  ( -0.9000000000000002442, 10.49999999999999822, 0.000000000000000000 ) ) ;
#48 = VERTEX_POINT ( 'NONE', #74 ) ;
#49 =( LENGTH_UNIT ( ) NAMED_UNIT ( * ) SI_UNIT ( .MILLI., .METRE. ) );
#50 = COLOUR_RGB ( '',0.6470588235294117974, 0.6196078431372549211, 0.5882352941176470784 ) ;
#51 = EDGE_CURVE ( 'NONE', #35, #146, #124, .T. ) ;
#52 = ORIENTED_EDGE ( 'NONE', *, *, #187, .T. ) ;
#53 = DIRECTION ( 'NONE',  ( 0.000000000000000000, 0.000000000000000000, -1.000000000000000000 ) ) ;
#54 = CIRCLE ( 'NONE', #159, 6.499999999999999112 ) ;
#55 = ORIENTED_EDGE ( 'NONE', *, *, #213, .F. ) ;
#56 = EDGE_LOOP ( 'NONE', ( #174, #130 ) ) ;
#57 = EDGE_CURVE ( 'NONE', #146, #35, #54, .T. ) ;
#58 = VECTOR ( 'NONE', #165, 1000.000000000000000 ) ;
#59 = DIRECTION ( 'NONE',  ( 1.000000000000000000, -0.000000000000000000, -0.000000000000000000 ) ) ;
#60 = DIRECTION ( 'NONE',  ( 1.000000000000000000, -0.000000000000000000, -0.000000000000000000 ) ) ;
#61 =( NAMED_UNIT ( * ) SI_UNIT ( $, .STERADIAN. ) SOLID_ANGLE_UNIT ( ) );
#62 = DIRECTION ( 'NONE',  ( 1.000000000000000000, -0.000000000000000000, -0.000000000000000000 ) ) ;
#63 = EDGE_CURVE ( 'NONE', #105, #48, #183, .T. ) ;
#64 = AXIS2_PLACEMENT_3D ( 'NONE', #171, #15, #202 ) ;
#65 = ORIENTED_EDGE ( 'NONE', *, *, #51, .T. ) ;
#66 = ORIENTED_EDGE ( 'NONE', *, *, #170, .F. ) ;
#67 = ORIENTED_EDGE ( 'NONE', *, *, #196, .T. ) ;
#68 = PRESENTATION_LAYER_ASSIGNMENT (  '', '', ( #161 ) ) ;
#69 = APPLICATION_PROTOCOL_DEFINITION ( 'draft international standard', 'automotive_design', 1998, #194 ) ;
#70 = DIRECTION ( 'NONE',  ( 1.000000000000000000, -0.000000000000000000, -0.000000000000000000 ) ) ;
#71 = UNCERTAINTY_MEASURE_WITH_UNIT (LENGTH_MEASURE( 1.000000000000000082E-05 ), #79, 'distance_accuracy_value', 'NONE');
#72 = DIRECTION ( 'NONE',  ( 0.000000000000000000, 0.000000000000000000, -1.000000000000000000 ) ) ;
#73 = SHAPE_DEFINITION_REPRESENTATION ( #195, #173 ) ;
#74 = CARTESIAN_POINT ( 'NONE',  ( -0.8999999999999998002, 1.285879139104720633E-15, 10.49999999999999822 ) ) ;
#75 = COLOUR_RGB ( '',0.6470588235294117974, 0.6196078431372549211, 0.5882352941176470784 ) ;
#76 =( NAMED_UNIT ( * ) SI_UNIT ( $, .STERADIAN. ) SOLID_ANGLE_UNIT ( ) );
#77 = ADVANCED_FACE ( 'NONE', ( #32 ), #141, .T. ) ;
#78 = EDGE_LOOP ( 'NONE', ( #18, #111, #190, #8 ) ) ;
#79 =( LENGTH_UNIT ( ) NAMED_UNIT ( * ) SI_UNIT ( .MILLI., .METRE. ) );
#80 =( GEOMETRIC_REPRESENTATION_CONTEXT ( 3 ) GLOBAL_UNCERTAINTY_ASSIGNED_CONTEXT ( ( #5 ) ) GLOBAL_UNIT_ASSIGNED_CONTEXT ( ( #49, #154, #61 ) ) REPRESENTATION_CONTEXT ( 'NONE', 'WORKASPACE' ) );
#81 = DIRECTION ( 'NONE',  ( 1.000000000000000000, -0.000000000000000000, -0.000000000000000000 ) ) ;
#82 = EDGE_CURVE ( 'NONE', #35, #168, #178, .T. ) ;
#83 = PRESENTATION_STYLE_ASSIGNMENT (( #34 ) ) ;
#84 = DIRECTION ( 'NONE',  ( 1.000000000000000000, -0.000000000000000000, -0.000000000000000000 ) ) ;
#85 = SURFACE_STYLE_FILL_AREA ( #149 ) ;
#86 = DIRECTION ( 'NONE',  ( 0.000000000000000000, 0.000000000000000000, -1.000000000000000000 ) ) ;
#87 = AXIS2_PLACEMENT_3D ( 'NONE', #3, #26, #135 ) ;
#88 = EDGE_LOOP ( 'NONE', ( #191, #193, #151, #67 ) ) ;
#89 = VERTEX_POINT ( 'NONE', #177 ) ;
#90 = PRESENTATION_LAYER_ASSIGNMENT (  '', '', ( #131 ) ) ;
#91 = MANIFOLD_SOLID_BREP ( 'Rotation1', #21 ) ;
#92 = DIRECTION ( 'NONE',  ( 1.000000000000000000, -0.000000000000000000, -0.000000000000000000 ) ) ;
#93 = VERTEX_POINT ( 'NONE', #17 ) ;
#94 = AXIS2_PLACEMENT_3D ( 'NONE', #137, #70, #139 ) ;
#95 = CARTESIAN_POINT ( 'NONE',  ( 7.206746031746035897, 0.000000000000000000, 0.000000000000000000 ) ) ;
#96 = DIRECTION ( 'NONE',  ( 0.000000000000000000, 0.000000000000000000, -1.000000000000000000 ) ) ;
#97 = DIRECTION ( 'NONE',  ( 0.000000000000000000, 0.000000000000000000, 1.000000000000000000 ) ) ;
#98 = ORIENTED_EDGE ( 'NONE', *, *, #156, .T. ) ;
#99 = CARTESIAN_POINT ( 'NONE',  ( 7.206746031746035897, 0.000000000000000000, 0.000000000000000000 ) ) ;
#100 = DIRECTION ( 'NONE',  ( 0.000000000000000000, 0.000000000000000000, -1.000000000000000000 ) ) ;
#101 = CIRCLE ( 'NONE', #64, 10.49999999999999822 ) ;
#102 = EDGE_CURVE ( 'NONE', #105, #89, #24, .T. ) ;
#103 =( GEOMETRIC_REPRESENTATION_CONTEXT ( 3 ) GLOBAL_UNCERTAINTY_ASSIGNED_CONTEXT ( ( #71 ) ) GLOBAL_UNIT_ASSIGNED_CONTEXT ( ( #79, #201, #76 ) ) REPRESENTATION_CONTEXT ( 'NONE', 'WORKASPACE' ) );
#104 = EDGE_LOOP ( 'NONE', ( #65, #145 ) ) ;
#105 = VERTEX_POINT ( 'NONE', #211 ) ;
#106 = ORIENTED_EDGE ( 'NONE', *, *, #102, .T. ) ;
#107 = APPLICATION_PROTOCOL_DEFINITION ( 'draft international standard', 'automotive_design', 1998, #155 ) ;
#108 = CARTESIAN_POINT ( 'NONE',  ( -0.8999999999999998002, 0.000000000000000000, -6.499999999999999112 ) ) ;
#109 = SURFACE_STYLE_FILL_AREA ( #43 ) ;
#110 = DIRECTION ( 'NONE',  ( 1.000000000000000000, -0.000000000000000000, -0.000000000000000000 ) ) ;
#111 = ORIENTED_EDGE ( 'NONE', *, *, #170, .T. ) ;
#112 = CARTESIAN_POINT ( 'NONE',  ( -0.8999999999999998002, 0.000000000000000000, 0.000000000000000000 ) ) ;
#113 = VERTEX_POINT ( 'NONE', #162 ) ;
#114 = CARTESIAN_POINT ( 'NONE',  ( 7.206746031746035897, 1.285879139104720633E-15, 10.49999999999999822 ) ) ;
#115 =( GEOMETRIC_REPRESENTATION_CONTEXT ( 3 ) GLOBAL_UNCERTAINTY_ASSIGNED_CONTEXT ( ( #2 ) ) GLOBAL_UNIT_ASSIGNED_CONTEXT ( ( #185, #140, #158 ) ) REPRESENTATION_CONTEXT ( 'NONE', 'WORKASPACE' ) );
#116 = PRODUCT_DEFINITION_CONTEXT ( 'detailed design', #155, 'design' ) ;
#117 = DIRECTION ( 'NONE',  ( -1.000000000000000000, 0.000000000000000000, 0.000000000000000000 ) ) ;
#118 = EDGE_LOOP ( 'NONE', ( #66, #52, #106, #55 ) ) ;
#119 = DIRECTION ( 'NONE',  ( 0.000000000000000000, 0.000000000000000000, -1.000000000000000000 ) ) ;
#120 = ADVANCED_FACE ( 'NONE', ( #22 ), #23, .F. ) ;
#121 = DIRECTION ( 'NONE',  ( 1.000000000000000000, -0.000000000000000000, -0.000000000000000000 ) ) ;
#122 = CARTESIAN_POINT ( 'NONE',  ( -8.673617379884035472E-16, 0.000000000000000000, 0.000000000000000000 ) ) ;
#123 = CARTESIAN_POINT ( 'NONE',  ( 0.000000000000000000, 0.000000000000000000, 0.000000000000000000 ) ) ;
#124 = CIRCLE ( 'NONE', #94, 6.499999999999999112 ) ;
#125 = SURFACE_STYLE_USAGE ( .BOTH. , #164 ) ;
#126 = FACE_OUTER_BOUND ( 'NONE', #118, .T. ) ;
#127 = CARTESIAN_POINT ( 'NONE',  ( -4.336808689942017736E-16, 6.499999999999999112, 0.000000000000000000 ) ) ;
#128 = CIRCLE ( 'NONE', #182, 6.499999999999999112 ) ;
#129 = FILL_AREA_STYLE_COLOUR ( '', #75 ) ;
#130 = ORIENTED_EDGE ( 'NONE', *, *, #187, .F. ) ;
#131 = STYLED_ITEM ( 'NONE', ( #10 ), #91 ) ;
#132 = CIRCLE ( 'NONE', #203, 6.499999999999999112 ) ;
#133 = EDGE_LOOP ( 'NONE', ( #30, #175 ) ) ;
#134 = DIRECTION ( 'NONE',  ( 1.000000000000000000, -0.000000000000000000, -0.000000000000000000 ) ) ;
#135 = DIRECTION ( 'NONE',  ( 1.000000000000000000, 0.000000000000000000, 0.000000000000000000 ) ) ;
#136 = AXIS2_PLACEMENT_3D ( 'NONE', #95, #166, #119 ) ;
#137 = CARTESIAN_POINT ( 'NONE',  ( -0.8999999999999998002, 0.000000000000000000, 0.000000000000000000 ) ) ;
#138 = CARTESIAN_POINT ( 'NONE',  ( 7.206746031746035897, 0.000000000000000000, 0.000000000000000000 ) ) ;
#139 = DIRECTION ( 'NONE',  ( 0.000000000000000000, 0.000000000000000000, -1.000000000000000000 ) ) ;
#140 =( NAMED_UNIT ( * ) PLANE_ANGLE_UNIT ( ) SI_UNIT ( $, .RADIAN. ) );
#141 = CYLINDRICAL_SURFACE ( 'NONE', #136, 10.49999999999999822 ) ;
#142 = VECTOR ( 'NONE', #60, 1000.000000000000000 ) ;
#143 = PRODUCT_RELATED_PRODUCT_CATEGORY ( 'part', '', ( #20 ) ) ;
#144 = AXIS2_PLACEMENT_3D ( 'NONE', #127, #31, #152 ) ;
#145 = ORIENTED_EDGE ( 'NONE', *, *, #57, .T. ) ;
#146 = VERTEX_POINT ( 'NONE', #199 ) ;
#147 = CARTESIAN_POINT ( 'NONE',  ( 0.000000000000000000, 0.000000000000000000, 0.000000000000000000 ) ) ;
#148 = AXIS2_PLACEMENT_3D ( 'NONE', #112, #59, #100 ) ;
#149 = FILL_AREA_STYLE ('',( #129 ) ) ;
#150 = EDGE_CURVE ( 'NONE', #93, #168, #132, .T. ) ;
#151 = ORIENTED_EDGE ( 'NONE', *, *, #82, .T. ) ;
#152 = DIRECTION ( 'NONE',  ( -0.000000000000000000, 0.000000000000000000, -1.000000000000000000 ) ) ;
#153 = CIRCLE ( 'NONE', #33, 10.49999999999999822 ) ;
#154 =( NAMED_UNIT ( * ) PLANE_ANGLE_UNIT ( ) SI_UNIT ( $, .RADIAN. ) );
#155 = APPLICATION_CONTEXT ( 'automotive_design' ) ;
#156 = EDGE_CURVE ( 'NONE', #146, #93, #42, .T. ) ;
#157 = FACE_BOUND ( 'NONE', #104, .T. ) ;
#158 =( NAMED_UNIT ( * ) SI_UNIT ( $, .STERADIAN. ) SOLID_ANGLE_UNIT ( ) );
#159 = AXIS2_PLACEMENT_3D ( 'NONE', #197, #121, #53 ) ;
#160 = ORIENTED_EDGE ( 'NONE', *, *, #150, .F. ) ;
#161 = STYLED_ITEM ( 'NONE', ( #83 ), #173 ) ;
#162 = CARTESIAN_POINT ( 'NONE',  ( -8.673617379884035472E-16, 1.285879139104720633E-15, 10.49999999999999822 ) ) ;
#163 = DIRECTION ( 'NONE',  ( 1.000000000000000000, -0.000000000000000000, -0.000000000000000000 ) ) ;
#164 = SURFACE_SIDE_STYLE ('',( #109 ) ) ;
#165 = DIRECTION ( 'NONE',  ( 1.000000000000000000, -0.000000000000000000, -0.000000000000000000 ) ) ;
#166 = DIRECTION ( 'NONE',  ( 1.000000000000000000, -0.000000000000000000, -0.000000000000000000 ) ) ;
#167 = FACE_OUTER_BOUND ( 'NONE', #56, .T. ) ;
#168 = VERTEX_POINT ( 'NONE', #27 ) ;
#169 = DIRECTION ( 'NONE',  ( 0.000000000000000000, 0.000000000000000000, -1.000000000000000000 ) ) ;
#170 = EDGE_CURVE ( 'NONE', #48, #113, #207, .T. ) ;
#171 = CARTESIAN_POINT ( 'NONE',  ( -8.673617379884035472E-16, 0.000000000000000000, 0.000000000000000000 ) ) ;
#172 = ORIENTED_EDGE ( 'NONE', *, *, #82, .F. ) ;
#173 = ADVANCED_BREP_SHAPE_REPRESENTATION ( '900.405.012.000', ( #91, #87 ), #80 ) ;
#174 = ORIENTED_EDGE ( 'NONE', *, *, #63, .F. ) ;
#175 = ORIENTED_EDGE ( 'NONE', *, *, #213, .T. ) ;
#176 = AXIS2_PLACEMENT_3D ( 'NONE', #1, #110, #204 ) ;
#177 = CARTESIAN_POINT ( 'NONE',  ( -8.673617379884035472E-16, 0.000000000000000000, -10.49999999999999822 ) ) ;
#178 = LINE ( 'NONE', #28, #142 ) ;
#179 = CARTESIAN_POINT ( 'NONE',  ( 7.206746031746035897, 7.960204194457794491E-16, 6.499999999999999112 ) ) ;
#180 = ORIENTED_EDGE ( 'NONE', *, *, #196, .F. ) ;
#181 = DIRECTION ( 'NONE',  ( 1.000000000000000000, -0.000000000000000000, -0.000000000000000000 ) ) ;
#182 = AXIS2_PLACEMENT_3D ( 'NONE', #123, #62, #29 ) ;
#183 = CIRCLE ( 'NONE', #16, 10.49999999999999822 ) ;
#184 = ORIENTED_EDGE ( 'NONE', *, *, #57, .F. ) ;
#185 =( LENGTH_UNIT ( ) NAMED_UNIT ( * ) SI_UNIT ( .MILLI., .METRE. ) );
#186 = FACE_BOUND ( 'NONE', #214, .T. ) ;
#187 = EDGE_CURVE ( 'NONE', #48, #105, #40, .T. ) ;
#188 = VECTOR ( 'NONE', #81, 1000.000000000000000 ) ;
#189 = VECTOR ( 'NONE', #84, 1000.000000000000000 ) ;
#190 = ORIENTED_EDGE ( 'NONE', *, *, #25, .F. ) ;
#191 = ORIENTED_EDGE ( 'NONE', *, *, #156, .F. ) ;
#192 = ADVANCED_FACE ( 'NONE', ( #157, #167 ), #209, .T. ) ;
#193 = ORIENTED_EDGE ( 'NONE', *, *, #51, .F. ) ;
#194 = APPLICATION_CONTEXT ( 'automotive_design' ) ;
#195 = PRODUCT_DEFINITION_SHAPE ( 'NONE', 'NONE',  #19 ) ;
#196 = EDGE_CURVE ( 'NONE', #168, #93, #128, .T. ) ;
#197 = CARTESIAN_POINT ( 'NONE',  ( -0.8999999999999998002, 0.000000000000000000, 0.000000000000000000 ) ) ;
#198 = CARTESIAN_POINT ( 'NONE',  ( -0.8999999999999998002, 0.000000000000000000, 0.000000000000000000 ) ) ;
#199 = CARTESIAN_POINT ( 'NONE',  ( -0.8999999999999998002, 7.960204194457794491E-16, 6.499999999999999112 ) ) ;
#200 = DIRECTION ( 'NONE',  ( 1.000000000000000000, -0.000000000000000000, -0.000000000000000000 ) ) ;
#201 =( NAMED_UNIT ( * ) PLANE_ANGLE_UNIT ( ) SI_UNIT ( $, .RADIAN. ) );
#202 = DIRECTION ( 'NONE',  ( 0.000000000000000000, 0.000000000000000000, -1.000000000000000000 ) ) ;
#203 = AXIS2_PLACEMENT_3D ( 'NONE', #147, #134, #6 ) ;
#204 = DIRECTION ( 'NONE',  ( 0.000000000000000000, 0.000000000000000000, -1.000000000000000000 ) ) ;
#205 = FACE_OUTER_BOUND ( 'NONE', #133, .T. ) ;
#206 = ADVANCED_FACE ( 'NONE', ( #126 ), #11, .T. ) ;
#207 = LINE ( 'NONE', #114, #188 ) ;
#208 = MECHANICAL_DESIGN_GEOMETRIC_PRESENTATION_REPRESENTATION (  '', ( #161 ), #115 ) ;
#209 = PLANE ( 'NONE',  #12 ) ;
#210 = ADVANCED_FACE ( 'NONE', ( #205, #186 ), #14, .T. ) ;
#211 = CARTESIAN_POINT ( 'NONE',  ( -0.8999999999999998002, 0.000000000000000000, -10.49999999999999822 ) ) ;
#212 = MECHANICAL_DESIGN_GEOMETRIC_PRESENTATION_REPRESENTATION (  '', ( #131 ), #103 ) ;
#213 = EDGE_CURVE ( 'NONE', #113, #89, #101, .T. ) ;
#214 = EDGE_LOOP ( 'NONE', ( #180, #160 ) ) ;
ENDSEC;
END-ISO-10303-21;
