ISO-10303-21;
HEADER;
FILE_DESCRIPTION (( 'STEP AP214' ),
    '1' );
FILE_NAME ('900.405.016.000.STEP',
    '2024-06-19T08:31:00',
    ( '' ),
    ( '' ),
    'SwSTEP 2.0',
    'SolidWorks 2022',
    '' );
FILE_SCHEMA (( 'AUTOMOTIVE_DESIGN' ));
ENDSEC;

DATA;
#1 = VERTEX_POINT ( 'NONE', #73 ) ;
#2 = PRODUCT_DEFINITION ( 'UNKNOWN', '', #99, #168 ) ;
#3 = ORIENTED_EDGE ( 'NONE', *, *, #111, .F. ) ;
#4 = AXIS2_PLACEMENT_3D ( 'NONE', #158, #25, #70 ) ;
#5 = EDGE_LOOP ( 'NONE', ( #52, #49 ) ) ;
#6 = VERTEX_POINT ( 'NONE', #163 ) ;
#7 = DIRECTION ( 'NONE',  ( 1.913297951445007129E-16, -2.220446049250314067E-16, -1.000000000000000000 ) ) ;
#8 = AXIS2_PLACEMENT_3D ( 'NONE', #106, #124, #14 ) ;
#9 = PLANE ( 'NONE',  #33 ) ;
#10 = CARTESIAN_POINT ( 'NONE',  ( 7.206746031746039449, -3.774758283725532237E-15, -17.00000000000000711 ) ) ;
#11 = FACE_OUTER_BOUND ( 'NONE', #115, .T. ) ;
#12 = AXIS2_PLACEMENT_3D ( 'NONE', #101, #177, #161 ) ;
#13 = ADVANCED_FACE ( 'NONE', ( #57 ), #100, .F. ) ;
#14 = DIRECTION ( 'NONE',  ( 1.968741186024066196E-16, -2.220446049250312095E-16, -1.000000000000000000 ) ) ;
#15 = DIRECTION ( 'NONE',  ( 1.000000000000000000, -3.552998878918486142E-18, -2.457196376734882559E-16 ) ) ;
#16 = CARTESIAN_POINT ( 'NONE',  ( 7.206746031746035897, 0.000000000000000000, 0.000000000000000000 ) ) ;
#17 = CIRCLE ( 'NONE', #190, 8.500000000000003553 ) ;
#18 =( NAMED_UNIT ( * ) PLANE_ANGLE_UNIT ( ) SI_UNIT ( $, .RADIAN. ) );
#19 = ADVANCED_FACE ( 'NONE', ( #122, #40 ), #208, .T. ) ;
#20 = VERTEX_POINT ( 'NONE', #75 ) ;
#21 = SURFACE_STYLE_USAGE ( .BOTH. , #188 ) ;
#22 =( NAMED_UNIT ( * ) PLANE_ANGLE_UNIT ( ) SI_UNIT ( $, .RADIAN. ) );
#23 = CARTESIAN_POINT ( 'NONE',  ( -1.800000000000010036, -2.775557561562891351E-14, 0.000000000000000000 ) ) ;
#24 = CARTESIAN_POINT ( 'NONE',  ( -3.592033887666314563E-15, -3.774758283725532237E-15, -17.00000000000000711 ) ) ;
#25 = DIRECTION ( 'NONE',  ( 1.000000000000000000, -3.552998878918486142E-18, -2.457196376734882559E-16 ) ) ;
#26 = VECTOR ( 'NONE', #121, 1000.000000000000000 ) ;
#27 = DIRECTION ( 'NONE',  ( -1.000000000000000000, 3.552998878918387535E-18, -1.968741186024065949E-16 ) ) ;
#28 = ORIENTED_EDGE ( 'NONE', *, *, #98, .F. ) ;
#29 = EDGE_CURVE ( 'NONE', #6, #41, #87, .T. ) ;
#30 = AXIS2_PLACEMENT_3D ( 'NONE', #149, #184, #128 ) ;
#31 = APPLICATION_PROTOCOL_DEFINITION ( 'draft international standard', 'automotive_design', 1998, #204 ) ;
#32 = CARTESIAN_POINT ( 'NONE',  ( 1.673430008120456907E-15, -1.887379141862766119E-15, -8.500000000000003553 ) ) ;
#33 = AXIS2_PLACEMENT_3D ( 'NONE', #137, #185, #46 ) ;
#34 = APPLICATION_PROTOCOL_DEFINITION ( 'draft international standard', 'automotive_design', 1998, #202 ) ;
#35 = AXIS2_PLACEMENT_3D ( 'NONE', #16, #62, #129 ) ;
#36 = ORIENTED_EDGE ( 'NONE', *, *, #123, .F. ) ;
#37 = VERTEX_POINT ( 'NONE', #42 ) ;
#38 = EDGE_CURVE ( 'NONE', #1, #136, #17, .T. ) ;
#39 = CARTESIAN_POINT ( 'NONE',  ( -1.800000000000023803, 17.00000000000000000, 1.734723475976807094E-15 ) ) ;
#40 = FACE_OUTER_BOUND ( 'NONE', #169, .T. ) ;
#41 = VERTEX_POINT ( 'NONE', #24 ) ;
#42 = CARTESIAN_POINT ( 'NONE',  ( -2.761660063457908651E-15, 5.885461101838505607E-15, 17.00000000000000000 ) ) ;
#43 = EDGE_CURVE ( 'NONE', #20, #189, #81, .T. ) ;
#44 = PRESENTATION_STYLE_ASSIGNMENT (( #108 ) ) ;
#45 =( NAMED_UNIT ( * ) SI_UNIT ( $, .STERADIAN. ) SOLID_ANGLE_UNIT ( ) );
#46 = DIRECTION ( 'NONE',  ( 1.968741186024065949E-16, -2.220446049250312095E-16, -1.000000000000000000 ) ) ;
#47 = VECTOR ( 'NONE', #88, 1000.000000000000000 ) ;
#48 = SHAPE_DEFINITION_REPRESENTATION ( #138, #198 ) ;
#49 = ORIENTED_EDGE ( 'NONE', *, *, #43, .T. ) ;
#50 = VERTEX_POINT ( 'NONE', #118 ) ;
#51 = FILL_AREA_STYLE_COLOUR ( '', #182 ) ;
#52 = ORIENTED_EDGE ( 'NONE', *, *, #148, .T. ) ;
#53 = DIRECTION ( 'NONE',  ( 1.913297951445007129E-16, -2.220446049250314067E-16, -1.000000000000000000 ) ) ;
#54 = CARTESIAN_POINT ( 'NONE',  ( -1.800000000000010036, -2.775557561562891351E-14, 0.000000000000000000 ) ) ;
#55 = PRODUCT ( '900.405.016.000', '900.405.016.000', '', ( #203 ) ) ;
#56 = EDGE_LOOP ( 'NONE', ( #69, #195, #152, #210 ) ) ;
#57 = FACE_OUTER_BOUND ( 'NONE', #191, .T. ) ;
#58 = CIRCLE ( 'NONE', #90, 8.500000000000001776 ) ;
#59 = ORIENTED_EDGE ( 'NONE', *, *, #43, .F. ) ;
#60 = SURFACE_STYLE_FILL_AREA ( #91 ) ;
#61 = AXIS2_PLACEMENT_3D ( 'NONE', #23, #175, #102 ) ;
#62 = DIRECTION ( 'NONE',  ( 1.000000000000000000, -3.552998878918486142E-18, -2.457196376734882559E-16 ) ) ;
#63 = CYLINDRICAL_SURFACE ( 'NONE', #140, 8.500000000000003553 ) ;
#64 = EDGE_CURVE ( 'NONE', #20, #1, #84, .T. ) ;
#65 = FILL_AREA_STYLE ('',( #51 ) ) ;
#66 = ORIENTED_EDGE ( 'NONE', *, *, #107, .T. ) ;
#67 = ORIENTED_EDGE ( 'NONE', *, *, #64, .T. ) ;
#68 = STYLED_ITEM ( 'NONE', ( #44 ), #144 ) ;
#69 = ORIENTED_EDGE ( 'NONE', *, *, #98, .T. ) ;
#70 = DIRECTION ( 'NONE',  ( 2.040851148208007505E-16, -2.220446049250312095E-16, -1.000000000000000000 ) ) ;
#71 = ADVANCED_FACE ( 'NONE', ( #11 ), #196, .T. ) ;
#72 = MECHANICAL_DESIGN_GEOMETRIC_PRESENTATION_REPRESENTATION (  '', ( #68 ), #165 ) ;
#73 = CARTESIAN_POINT ( 'NONE',  ( 2.088616920224668935E-15, 2.957132180700487967E-15, 8.500000000000000000 ) ) ;
#74 = ORIENTED_EDGE ( 'NONE', *, *, #38, .T. ) ;
#75 = CARTESIAN_POINT ( 'NONE',  ( -1.800000000000007816, 2.957132180700470218E-15, 8.499999999999998224 ) ) ;
#76 = ORIENTED_EDGE ( 'NONE', *, *, #123, .T. ) ;
#77 = CIRCLE ( 'NONE', #194, 17.00000000000000711 ) ;
#78 =( LENGTH_UNIT ( ) NAMED_UNIT ( * ) SI_UNIT ( .MILLI., .METRE. ) );
#79 = CYLINDRICAL_SURFACE ( 'NONE', #35, 17.00000000000000711 ) ;
#80 =( GEOMETRIC_REPRESENTATION_CONTEXT ( 3 ) GLOBAL_UNCERTAINTY_ASSIGNED_CONTEXT ( ( #151 ) ) GLOBAL_UNIT_ASSIGNED_CONTEXT ( ( #89, #18, #197 ) ) REPRESENTATION_CONTEXT ( 'NONE', 'WORKASPACE' ) );
#81 = CIRCLE ( 'NONE', #61, 8.500000000000001776 ) ;
#82 = LINE ( 'NONE', #213, #155 ) ;
#83 = STYLED_ITEM ( 'NONE', ( #133 ), #198 ) ;
#84 = LINE ( 'NONE', #211, #47 ) ;
#85 = CARTESIAN_POINT ( 'NONE',  ( -1.800000000000010036, -2.775557561562891351E-14, 0.000000000000000000 ) ) ;
#86 = CARTESIAN_POINT ( 'NONE',  ( 7.206746031746035897, 0.000000000000000000, 0.000000000000000000 ) ) ;
#87 = LINE ( 'NONE', #10, #26 ) ;
#88 = DIRECTION ( 'NONE',  ( 1.000000000000000000, -3.552998878918486142E-18, -2.457196376734882559E-16 ) ) ;
#89 =( LENGTH_UNIT ( ) NAMED_UNIT ( * ) SI_UNIT ( .MILLI., .METRE. ) );
#90 = AXIS2_PLACEMENT_3D ( 'NONE', #92, #212, #166 ) ;
#91 = FILL_AREA_STYLE ('',( #186 ) ) ;
#92 = CARTESIAN_POINT ( 'NONE',  ( -1.800000000000010036, -2.775557561562891351E-14, 0.000000000000000000 ) ) ;
#93 = DIRECTION ( 'NONE',  ( 1.000000000000000000, -3.552998878918486142E-18, -2.457196376734882559E-16 ) ) ;
#94 = UNCERTAINTY_MEASURE_WITH_UNIT (LENGTH_MEASURE( 1.000000000000000082E-05 ), #78, 'distance_accuracy_value', 'NONE');
#95 = CIRCLE ( 'NONE', #8, 17.00000000000000711 ) ;
#96 = EDGE_LOOP ( 'NONE', ( #179, #97 ) ) ;
#97 = ORIENTED_EDGE ( 'NONE', *, *, #38, .F. ) ;
#98 = EDGE_CURVE ( 'NONE', #6, #50, #199, .T. ) ;
#99 = PRODUCT_DEFINITION_FORMATION_WITH_SPECIFIED_SOURCE ( 'ANY', '', #55, .NOT_KNOWN. ) ;
#100 = CYLINDRICAL_SURFACE ( 'NONE', #147, 8.500000000000003553 ) ;
#101 = CARTESIAN_POINT ( 'NONE',  ( -6.938893903907228378E-15, 0.000000000000000000, 0.000000000000000000 ) ) ;
#102 = DIRECTION ( 'NONE',  ( 2.040851148208007998E-16, -2.220446049250314560E-16, -1.000000000000000000 ) ) ;
#103 = CLOSED_SHELL ( 'NONE', ( #167, #13, #141, #116, #71, #19 ) ) ;
#104 = DIRECTION ( 'NONE',  ( 1.000000000000000000, -3.552998878918486142E-18, -2.457196376734882559E-16 ) ) ;
#105 = DIRECTION ( 'NONE',  ( 1.968741186024066196E-16, -2.220446049250312095E-16, -1.000000000000000000 ) ) ;
#106 = CARTESIAN_POINT ( 'NONE',  ( -6.938893903907228378E-15, 0.000000000000000000, 0.000000000000000000 ) ) ;
#107 = EDGE_CURVE ( 'NONE', #41, #37, #174, .T. ) ;
#108 = SURFACE_STYLE_USAGE ( .BOTH. , #109 ) ;
#109 = SURFACE_SIDE_STYLE ('',( #60 ) ) ;
#110 = SURFACE_STYLE_FILL_AREA ( #65 ) ;
#111 = EDGE_CURVE ( 'NONE', #50, #6, #77, .T. ) ;
#112 =( LENGTH_UNIT ( ) NAMED_UNIT ( * ) SI_UNIT ( .MILLI., .METRE. ) );
#113 = ORIENTED_EDGE ( 'NONE', *, *, #176, .F. ) ;
#114 =( GEOMETRIC_REPRESENTATION_CONTEXT ( 3 ) GLOBAL_UNCERTAINTY_ASSIGNED_CONTEXT ( ( #130 ) ) GLOBAL_UNIT_ASSIGNED_CONTEXT ( ( #112, #22, #201 ) ) REPRESENTATION_CONTEXT ( 'NONE', 'WORKASPACE' ) );
#115 = EDGE_LOOP ( 'NONE', ( #209, #157, #171, #113 ) ) ;
#116 = ADVANCED_FACE ( 'NONE', ( #119, #178 ), #9, .T. ) ;
#117 = CIRCLE ( 'NONE', #30, 8.500000000000003553 ) ;
#118 = CARTESIAN_POINT ( 'NONE',  ( -1.800000000000005818, 5.885461101838498507E-15, 17.00000000000000000 ) ) ;
#119 = FACE_OUTER_BOUND ( 'NONE', #154, .T. ) ;
#120 = DIRECTION ( 'NONE',  ( 2.040851148208007505E-16, -2.220446049250312095E-16, -1.000000000000000000 ) ) ;
#121 = DIRECTION ( 'NONE',  ( 1.000000000000000000, -3.552998878918486142E-18, -2.457196376734882559E-16 ) ) ;
#122 = FACE_BOUND ( 'NONE', #5, .T. ) ;
#123 = EDGE_CURVE ( 'NONE', #189, #136, #145, .T. ) ;
#124 = DIRECTION ( 'NONE',  ( 1.000000000000000000, -3.552998878918486142E-18, -2.457196376734882559E-16 ) ) ;
#125 = DIRECTION ( 'NONE',  ( 2.040851148208007505E-16, -2.220446049250312095E-16, -1.000000000000000000 ) ) ;
#126 = AXIS2_PLACEMENT_3D ( 'NONE', #39, #27, #135 ) ;
#127 = CARTESIAN_POINT ( 'NONE',  ( 7.206746031746037673, -1.887379141862766119E-15, -8.500000000000003553 ) ) ;
#128 = DIRECTION ( 'NONE',  ( 1.968741186024066196E-16, -2.220446049250312095E-16, -1.000000000000000000 ) ) ;
#129 = DIRECTION ( 'NONE',  ( 2.040851148208007505E-16, -2.220446049250312095E-16, -1.000000000000000000 ) ) ;
#130 = UNCERTAINTY_MEASURE_WITH_UNIT (LENGTH_MEASURE( 1.000000000000000082E-05 ), #112, 'distance_accuracy_value', 'NONE');
#131 = EDGE_CURVE ( 'NONE', #50, #37, #82, .T. ) ;
#132 = AXIS2_PLACEMENT_3D ( 'NONE', #54, #205, #53 ) ;
#133 = PRESENTATION_STYLE_ASSIGNMENT (( #21 ) ) ;
#134 = PRODUCT_RELATED_PRODUCT_CATEGORY ( 'part', '', ( #55 ) ) ;
#135 = DIRECTION ( 'NONE',  ( -1.968741186024065949E-16, 2.220446049250312095E-16, 1.000000000000000000 ) ) ;
#136 = VERTEX_POINT ( 'NONE', #32 ) ;
#137 = CARTESIAN_POINT ( 'NONE',  ( 0.000000000000000000, 8.499999999999992895, 1.214306433183764966E-14 ) ) ;
#138 = PRODUCT_DEFINITION_SHAPE ( 'NONE', 'NONE',  #2 ) ;
#139 = CARTESIAN_POINT ( 'NONE',  ( 0.000000000000000000, 0.000000000000000000, 0.000000000000000000 ) ) ;
#140 = AXIS2_PLACEMENT_3D ( 'NONE', #143, #146, #125 ) ;
#141 = ADVANCED_FACE ( 'NONE', ( #187 ), #63, .F. ) ;
#142 = DIRECTION ( 'NONE',  ( 1.000000000000000000, -3.552998878918486142E-18, -2.457196376734882559E-16 ) ) ;
#143 = CARTESIAN_POINT ( 'NONE',  ( 7.206746031746035897, 0.000000000000000000, 0.000000000000000000 ) ) ;
#144 = MANIFOLD_SOLID_BREP ( 'Rotation1', #103 ) ;
#145 = LINE ( 'NONE', #127, #150 ) ;
#146 = DIRECTION ( 'NONE',  ( 1.000000000000000000, -3.552998878918486142E-18, -2.457196376734882559E-16 ) ) ;
#147 = AXIS2_PLACEMENT_3D ( 'NONE', #86, #104, #120 ) ;
#148 = EDGE_CURVE ( 'NONE', #189, #20, #58, .T. ) ;
#149 = CARTESIAN_POINT ( 'NONE',  ( 0.000000000000000000, 0.000000000000000000, 0.000000000000000000 ) ) ;
#150 = VECTOR ( 'NONE', #15, 1000.000000000000000 ) ;
#151 = UNCERTAINTY_MEASURE_WITH_UNIT (LENGTH_MEASURE( 1.000000000000000082E-05 ), #89, 'distance_accuracy_value', 'NONE');
#152 = ORIENTED_EDGE ( 'NONE', *, *, #107, .F. ) ;
#153 = DIRECTION ( 'NONE',  ( 0.000000000000000000, 0.000000000000000000, 1.000000000000000000 ) ) ;
#154 = EDGE_LOOP ( 'NONE', ( #66, #180 ) ) ;
#155 = VECTOR ( 'NONE', #93, 1000.000000000000000 ) ;
#156 = CARTESIAN_POINT ( 'NONE',  ( 0.000000000000000000, 0.000000000000000000, 0.000000000000000000 ) ) ;
#157 = ORIENTED_EDGE ( 'NONE', *, *, #111, .T. ) ;
#158 = CARTESIAN_POINT ( 'NONE',  ( 7.206746031746035897, 0.000000000000000000, 0.000000000000000000 ) ) ;
#159 = DIRECTION ( 'NONE',  ( 1.000000000000000000, -3.552998878918486142E-18, -2.457196376734882559E-16 ) ) ;
#160 = PRESENTATION_LAYER_ASSIGNMENT (  '', '', ( #83 ) ) ;
#161 = DIRECTION ( 'NONE',  ( 1.968741186024066196E-16, -2.220446049250312095E-16, -1.000000000000000000 ) ) ;
#162 = ORIENTED_EDGE ( 'NONE', *, *, #148, .F. ) ;
#163 = CARTESIAN_POINT ( 'NONE',  ( -1.800000000000006706, -3.153033389935445206E-14, -17.00000000000000711 ) ) ;
#164 = COLOUR_RGB ( '',0.6470588235294117974, 0.6196078431372549211, 0.5882352941176470784 ) ;
#165 =( GEOMETRIC_REPRESENTATION_CONTEXT ( 3 ) GLOBAL_UNCERTAINTY_ASSIGNED_CONTEXT ( ( #94 ) ) GLOBAL_UNIT_ASSIGNED_CONTEXT ( ( #78, #200, #45 ) ) REPRESENTATION_CONTEXT ( 'NONE', 'WORKASPACE' ) );
#166 = DIRECTION ( 'NONE',  ( 2.040851148208007998E-16, -2.220446049250314560E-16, -1.000000000000000000 ) ) ;
#167 = ADVANCED_FACE ( 'NONE', ( #214 ), #79, .T. ) ;
#168 = PRODUCT_DEFINITION_CONTEXT ( 'detailed design', #202, 'design' ) ;
#169 = EDGE_LOOP ( 'NONE', ( #28, #3 ) ) ;
#170 = PRESENTATION_LAYER_ASSIGNMENT (  '', '', ( #68 ) ) ;
#171 = ORIENTED_EDGE ( 'NONE', *, *, #29, .T. ) ;
#172 = DIRECTION ( 'NONE',  ( 1.000000000000000000, 0.000000000000000000, 0.000000000000000000 ) ) ;
#173 = ORIENTED_EDGE ( 'NONE', *, *, #64, .F. ) ;
#174 = CIRCLE ( 'NONE', #12, 17.00000000000000711 ) ;
#175 = DIRECTION ( 'NONE',  ( 1.000000000000000000, -3.552998878918486142E-18, -2.457196376734882559E-16 ) ) ;
#176 = EDGE_CURVE ( 'NONE', #37, #41, #95, .T. ) ;
#177 = DIRECTION ( 'NONE',  ( 1.000000000000000000, -3.552998878918486142E-18, -2.457196376734882559E-16 ) ) ;
#178 = FACE_BOUND ( 'NONE', #96, .T. ) ;
#179 = ORIENTED_EDGE ( 'NONE', *, *, #183, .F. ) ;
#180 = ORIENTED_EDGE ( 'NONE', *, *, #176, .T. ) ;
#181 = CARTESIAN_POINT ( 'NONE',  ( -1.800000000000008260, -2.964295475749167963E-14, -8.500000000000001776 ) ) ;
#182 = COLOUR_RGB ( '',0.6470588235294117974, 0.6196078431372549211, 0.5882352941176470784 ) ;
#183 = EDGE_CURVE ( 'NONE', #136, #1, #117, .T. ) ;
#184 = DIRECTION ( 'NONE',  ( 1.000000000000000000, -3.552998878918486142E-18, -2.457196376734882559E-16 ) ) ;
#185 = DIRECTION ( 'NONE',  ( 1.000000000000000000, -3.552998878918387535E-18, 1.968741186024065949E-16 ) ) ;
#186 = FILL_AREA_STYLE_COLOUR ( '', #164 ) ;
#187 = FACE_OUTER_BOUND ( 'NONE', #192, .T. ) ;
#188 = SURFACE_SIDE_STYLE ('',( #110 ) ) ;
#189 = VERTEX_POINT ( 'NONE', #181 ) ;
#190 = AXIS2_PLACEMENT_3D ( 'NONE', #139, #142, #105 ) ;
#191 = EDGE_LOOP ( 'NONE', ( #59, #67, #74, #36 ) ) ;
#192 = EDGE_LOOP ( 'NONE', ( #173, #162, #76, #193 ) ) ;
#193 = ORIENTED_EDGE ( 'NONE', *, *, #183, .T. ) ;
#194 = AXIS2_PLACEMENT_3D ( 'NONE', #85, #159, #7 ) ;
#195 = ORIENTED_EDGE ( 'NONE', *, *, #131, .T. ) ;
#196 = CYLINDRICAL_SURFACE ( 'NONE', #4, 17.00000000000000711 ) ;
#197 =( NAMED_UNIT ( * ) SI_UNIT ( $, .STERADIAN. ) SOLID_ANGLE_UNIT ( ) );
#198 = ADVANCED_BREP_SHAPE_REPRESENTATION ( '900.405.016.000', ( #144, #207 ), #80 ) ;
#199 = CIRCLE ( 'NONE', #132, 17.00000000000000711 ) ;
#200 =( NAMED_UNIT ( * ) PLANE_ANGLE_UNIT ( ) SI_UNIT ( $, .RADIAN. ) );
#201 =( NAMED_UNIT ( * ) SI_UNIT ( $, .STERADIAN. ) SOLID_ANGLE_UNIT ( ) );
#202 = APPLICATION_CONTEXT ( 'automotive_design' ) ;
#203 = PRODUCT_CONTEXT ( 'NONE', #204, 'mechanical' ) ;
#204 = APPLICATION_CONTEXT ( 'automotive_design' ) ;
#205 = DIRECTION ( 'NONE',  ( 1.000000000000000000, -3.552998878918486142E-18, -2.457196376734882559E-16 ) ) ;
#206 = MECHANICAL_DESIGN_GEOMETRIC_PRESENTATION_REPRESENTATION (  '', ( #83 ), #114 ) ;
#207 = AXIS2_PLACEMENT_3D ( 'NONE', #156, #153, #172 ) ;
#208 = PLANE ( 'NONE',  #126 ) ;
#209 = ORIENTED_EDGE ( 'NONE', *, *, #131, .F. ) ;
#210 = ORIENTED_EDGE ( 'NONE', *, *, #29, .F. ) ;
#211 = CARTESIAN_POINT ( 'NONE',  ( 7.206746031746035008, 2.928328921138018428E-15, 8.500000000000003553 ) ) ;
#212 = DIRECTION ( 'NONE',  ( 1.000000000000000000, -3.552998878918486142E-18, -2.457196376734882559E-16 ) ) ;
#213 = CARTESIAN_POINT ( 'NONE',  ( 7.206746031746033232, 5.856657842276036856E-15, 17.00000000000000711 ) ) ;
#214 = FACE_OUTER_BOUND ( 'NONE', #56, .T. ) ;
ENDSEC;
END-ISO-10303-21;
