ISO-10303-21;
HEADER;
FILE_DESCRIPTION (( 'STEP AP214' ),
    '1' );
FILE_NAME ('J00.405.004.000.STEP',
    '2024-06-20T06:39:48',
    ( '' ),
    ( '' ),
    'SwSTEP 2.0',
    'SolidWorks 2022',
    '' );
FILE_SCHEMA (( 'AUTOMOTIVE_DESIGN' ));
ENDSEC;

DATA;
#1 = CARTESIAN_POINT ( 'NONE',  ( 7.206746031746035897, 4.408728476930470165E-16, 3.599999999999999201 ) ) ;
#2 = AXIS2_PLACEMENT_3D ( 'NONE', #10, #52, #160 ) ;
#3 = ORIENTED_EDGE ( 'NONE', *, *, #44, .F. ) ;
#4 = ORIENTED_EDGE ( 'NONE', *, *, #228, .F. ) ;
#5 = COLOUR_RGB ( '',0.7529411764705882248, 0.7529411764705882248, 0.7529411764705882248 ) ;
#6 = LINE ( 'NONE', #201, #212 ) ;
#7 = CARTESIAN_POINT ( 'NONE',  ( -0.5499999999999983791, 0.000000000000000000, 3.599999999999998757 ) ) ;
#8 = STYLED_ITEM ( 'NONE', ( #134 ), #145 ) ;
#9 = DIRECTION ( 'NONE',  ( 1.000000000000000000, -0.000000000000000000, -0.000000000000000000 ) ) ;
#10 = CARTESIAN_POINT ( 'NONE',  ( 7.206746031746035897, 0.000000000000000000, 0.000000000000000000 ) ) ;
#11 = AXIS2_PLACEMENT_3D ( 'NONE', #75, #96, #178 ) ;
#12 = EDGE_LOOP ( 'NONE', ( #59, #95, #115, #192 ) ) ;
#13 = CYLINDRICAL_SURFACE ( 'NONE', #19, 2.149999999999999023 ) ;
#14 = CIRCLE ( 'NONE', #37, 2.149999999999999467 ) ;
#15 = EDGE_CURVE ( 'NONE', #169, #89, #66, .T. ) ;
#16 = DIRECTION ( 'NONE',  ( 0.000000000000000000, 0.000000000000000000, 1.000000000000000000 ) ) ;
#17 = ORIENTED_EDGE ( 'NONE', *, *, #162, .F. ) ;
#18 = VERTEX_POINT ( 'NONE', #79 ) ;
#19 = AXIS2_PLACEMENT_3D ( 'NONE', #172, #73, #151 ) ;
#20 = DIRECTION ( 'NONE',  ( 0.000000000000000000, 0.000000000000000000, -1.000000000000000000 ) ) ;
#21 = VERTEX_POINT ( 'NONE', #80 ) ;
#22 = EDGE_CURVE ( 'NONE', #169, #18, #200, .T. ) ;
#23 = FACE_OUTER_BOUND ( 'NONE', #135, .T. ) ;
#24 = CARTESIAN_POINT ( 'NONE',  ( -0.5499999999999983791, 0.000000000000000000, 0.000000000000000000 ) ) ;
#25 = SURFACE_STYLE_FILL_AREA ( #106 ) ;
#26 = PRODUCT_DEFINITION ( 'UNKNOWN', '', #55, #202 ) ;
#27 = EDGE_CURVE ( 'NONE', #119, #21, #133, .T. ) ;
#28 = UNCERTAINTY_MEASURE_WITH_UNIT (LENGTH_MEASURE( 1.000000000000000082E-05 ), #150, 'distance_accuracy_value', 'NONE');
#29 = DIRECTION ( 'NONE',  ( 1.000000000000000000, -0.000000000000000000, -0.000000000000000000 ) ) ;
#30 = AXIS2_PLACEMENT_3D ( 'NONE', #166, #84, #143 ) ;
#31 = FACE_OUTER_BOUND ( 'NONE', #176, .T. ) ;
#32 = CIRCLE ( 'NONE', #177, 3.599999999999999201 ) ;
#33 = DIRECTION ( 'NONE',  ( -0.1014897395041340772, 1.218323440677263234E-16, -0.9948365859654453303 ) ) ;
#34 = APPLICATION_PROTOCOL_DEFINITION ( 'draft international standard', 'automotive_design', 1998, #181 ) ;
#35 = EDGE_CURVE ( 'NONE', #18, #139, #196, .T. ) ;
#36 = FILL_AREA_STYLE ('',( #110 ) ) ;
#37 = AXIS2_PLACEMENT_3D ( 'NONE', #182, #101, #137 ) ;
#38 = ORIENTED_EDGE ( 'NONE', *, *, #15, .T. ) ;
#39 = LINE ( 'NONE', #112, #209 ) ;
#40 = ORIENTED_EDGE ( 'NONE', *, *, #35, .F. ) ;
#41 = ORIENTED_EDGE ( 'NONE', *, *, #68, .F. ) ;
#42 = DIRECTION ( 'NONE',  ( 1.000000000000000000, -0.000000000000000000, -0.000000000000000000 ) ) ;
#43 = EDGE_LOOP ( 'NONE', ( #121, #78, #198, #221 ) ) ;
#44 = EDGE_CURVE ( 'NONE', #89, #169, #222, .T. ) ;
#45 = ORIENTED_EDGE ( 'NONE', *, *, #15, .F. ) ;
#46 = DIRECTION ( 'NONE',  ( 0.000000000000000000, 0.000000000000000000, -1.000000000000000000 ) ) ;
#47 = CARTESIAN_POINT ( 'NONE',  ( 7.206746031746035897, 0.000000000000000000, 0.000000000000000000 ) ) ;
#48 = DIRECTION ( 'NONE',  ( 0.000000000000000000, 0.000000000000000000, 1.000000000000000000 ) ) ;
#49 = DIRECTION ( 'NONE',  ( -1.000000000000000000, 0.000000000000000000, 0.000000000000000000 ) ) ;
#50 = DIRECTION ( 'NONE',  ( 0.000000000000000000, 0.000000000000000000, 1.000000000000000000 ) ) ;
#51 = EDGE_CURVE ( 'NONE', #98, #77, #14, .T. ) ;
#52 = DIRECTION ( 'NONE',  ( 1.000000000000000000, -0.000000000000000000, -0.000000000000000000 ) ) ;
#53 = VECTOR ( 'NONE', #124, 1000.000000000000000 ) ;
#54 = SURFACE_STYLE_USAGE ( .BOTH. , #195 ) ;
#55 = PRODUCT_DEFINITION_FORMATION_WITH_SPECIFIED_SOURCE ( 'ANY', '', #235, .NOT_KNOWN. ) ;
#56 =( NAMED_UNIT ( * ) PLANE_ANGLE_UNIT ( ) SI_UNIT ( $, .RADIAN. ) );
#57 =( NAMED_UNIT ( * ) SI_UNIT ( $, .STERADIAN. ) SOLID_ANGLE_UNIT ( ) );
#58 = ORIENTED_EDGE ( 'NONE', *, *, #22, .F. ) ;
#59 = ORIENTED_EDGE ( 'NONE', *, *, #189, .F. ) ;
#60 = CARTESIAN_POINT ( 'NONE',  ( -0.1479239146981933817, 0.000000000000000000, 0.000000000000000000 ) ) ;
#61 = EDGE_LOOP ( 'NONE', ( #100, #4, #186, #157 ) ) ;
#62 = ORIENTED_EDGE ( 'NONE', *, *, #74, .F. ) ;
#63 = CONICAL_SURFACE ( 'NONE', #174, 3.599999999999998757, 1.469131547868512300 ) ;
#64 = LINE ( 'NONE', #127, #190 ) ;
#65 = CYLINDRICAL_SURFACE ( 'NONE', #131, 3.599999999999999201 ) ;
#66 = CIRCLE ( 'NONE', #237, 3.599999999999998757 ) ;
#67 = DIRECTION ( 'NONE',  ( -1.000000000000000000, 0.000000000000000000, 0.000000000000000000 ) ) ;
#68 = EDGE_CURVE ( 'NONE', #139, #18, #32, .T. ) ;
#69 = EDGE_CURVE ( 'NONE', #119, #89, #6, .T. ) ;
#70 = SURFACE_STYLE_USAGE ( .BOTH. , #107 ) ;
#71 = DIRECTION ( 'NONE',  ( 1.000000000000000000, -0.000000000000000000, -0.000000000000000000 ) ) ;
#72 = ADVANCED_FACE ( 'NONE', ( #23 ), #76, .F. ) ;
#73 = DIRECTION ( 'NONE',  ( 1.000000000000000000, -0.000000000000000000, -0.000000000000000000 ) ) ;
#74 = EDGE_CURVE ( 'NONE', #77, #18, #159, .T. ) ;
#75 = CARTESIAN_POINT ( 'NONE',  ( 0.000000000000000000, 0.000000000000000000, 0.000000000000000000 ) ) ;
#76 = CONICAL_SURFACE ( 'NONE', #85, 3.599999999999998757, 1.469131547868512300 ) ;
#77 = VERTEX_POINT ( 'NONE', #146 ) ;
#78 = ORIENTED_EDGE ( 'NONE', *, *, #189, .T. ) ;
#79 = CARTESIAN_POINT ( 'NONE',  ( -0.1479239146981933817, 4.408728476930470165E-16, 3.599999999999999201 ) ) ;
#80 = CARTESIAN_POINT ( 'NONE',  ( -0.4020760853018058856, 2.632990618166808249E-16, 2.149999999999999023 ) ) ;
#81 = CARTESIAN_POINT ( 'NONE',  ( -0.5499999999999983791, 0.000000000000000000, 0.000000000000000000 ) ) ;
#82 = VECTOR ( 'NONE', #125, 1000.000000000000227 ) ;
#83 = FACE_OUTER_BOUND ( 'NONE', #43, .T. ) ;
#84 = DIRECTION ( 'NONE',  ( 1.000000000000000000, -0.000000000000000000, -0.000000000000000000 ) ) ;
#85 = AXIS2_PLACEMENT_3D ( 'NONE', #81, #185, #116 ) ;
#86 = FACE_OUTER_BOUND ( 'NONE', #61, .T. ) ;
#87 = UNCERTAINTY_MEASURE_WITH_UNIT (LENGTH_MEASURE( 1.000000000000000082E-05 ), #147, 'distance_accuracy_value', 'NONE');
#88 = CYLINDRICAL_SURFACE ( 'NONE', #2, 3.599999999999999201 ) ;
#89 = VERTEX_POINT ( 'NONE', #224 ) ;
#90 = DIRECTION ( 'NONE',  ( -0.1014897395041336331, 0.000000000000000000, 0.9948365859654454413 ) ) ;
#91 = ORIENTED_EDGE ( 'NONE', *, *, #208, .F. ) ;
#92 = APPLICATION_CONTEXT ( 'automotive_design' ) ;
#93 =( NAMED_UNIT ( * ) PLANE_ANGLE_UNIT ( ) SI_UNIT ( $, .RADIAN. ) );
#94 = ADVANCED_FACE ( 'NONE', ( #226 ), #193, .T. ) ;
#95 = ORIENTED_EDGE ( 'NONE', *, *, #27, .F. ) ;
#96 = DIRECTION ( 'NONE',  ( 0.000000000000000000, 0.000000000000000000, 1.000000000000000000 ) ) ;
#97 = CONICAL_SURFACE ( 'NONE', #232, 2.149999999999999467, 1.469131547868511856 ) ;
#98 = VERTEX_POINT ( 'NONE', #211 ) ;
#99 = CIRCLE ( 'NONE', #103, 2.149999999999999467 ) ;
#100 = ORIENTED_EDGE ( 'NONE', *, *, #155, .F. ) ;
#101 = DIRECTION ( 'NONE',  ( 1.000000000000000000, -0.000000000000000000, -0.000000000000000000 ) ) ;
#102 = DIRECTION ( 'NONE',  ( 1.000000000000000000, -0.000000000000000000, -0.000000000000000000 ) ) ;
#103 = AXIS2_PLACEMENT_3D ( 'NONE', #217, #173, #251 ) ;
#104 = DIRECTION ( 'NONE',  ( 0.000000000000000000, 0.000000000000000000, -1.000000000000000000 ) ) ;
#105 = CARTESIAN_POINT ( 'NONE',  ( -0.5499999999999983791, 0.000000000000000000, 0.000000000000000000 ) ) ;
#106 = FILL_AREA_STYLE ('',( #187 ) ) ;
#107 = SURFACE_SIDE_STYLE ('',( #25 ) ) ;
#108 =( LENGTH_UNIT ( ) NAMED_UNIT ( * ) SI_UNIT ( .MILLI., .METRE. ) );
#109 = COLOUR_RGB ( '',0.7529411764705882248, 0.7529411764705882248, 0.7529411764705882248 ) ;
#110 = FILL_AREA_STYLE_COLOUR ( '', #5 ) ;
#111 = CIRCLE ( 'NONE', #30, 2.149999999999999023 ) ;
#112 = CARTESIAN_POINT ( 'NONE',  ( 7.206746031746035897, 0.000000000000000000, -2.149999999999999023 ) ) ;
#113 = AXIS2_PLACEMENT_3D ( 'NONE', #247, #67, #48 ) ;
#114 = ADVANCED_FACE ( 'NONE', ( #31 ), #88, .T. ) ;
#115 = ORIENTED_EDGE ( 'NONE', *, *, #215, .T. ) ;
#116 = DIRECTION ( 'NONE',  ( 0.000000000000000000, 0.000000000000000000, 1.000000000000000000 ) ) ;
#117 = DIRECTION ( 'NONE',  ( 1.000000000000000000, -0.000000000000000000, -0.000000000000000000 ) ) ;
#118 =( GEOMETRIC_REPRESENTATION_CONTEXT ( 3 ) GLOBAL_UNCERTAINTY_ASSIGNED_CONTEXT ( ( #167 ) ) GLOBAL_UNIT_ASSIGNED_CONTEXT ( ( #108, #191, #205 ) ) REPRESENTATION_CONTEXT ( 'NONE', 'WORKASPACE' ) );
#119 = VERTEX_POINT ( 'NONE', #161 ) ;
#120 = CLOSED_SHELL ( 'NONE', ( #94, #114, #199, #142, #233, #72, #183, #132 ) ) ;
#121 = ORIENTED_EDGE ( 'NONE', *, *, #171, .F. ) ;
#122 = DIRECTION ( 'NONE',  ( 1.000000000000000000, -0.000000000000000000, -0.000000000000000000 ) ) ;
#123 = CARTESIAN_POINT ( 'NONE',  ( 0.000000000000000000, 0.000000000000000000, 0.000000000000000000 ) ) ;
#124 = DIRECTION ( 'NONE',  ( 1.000000000000000000, -0.000000000000000000, -0.000000000000000000 ) ) ;
#125 = DIRECTION ( 'NONE',  ( -0.1014897395041340772, 0.000000000000000000, 0.9948365859654453303 ) ) ;
#126 = CYLINDRICAL_SURFACE ( 'NONE', #158, 2.149999999999999023 ) ;
#127 = CARTESIAN_POINT ( 'NONE',  ( 0.000000000000000000, 2.632990618166808742E-16, -2.149999999999999467 ) ) ;
#128 = AXIS2_PLACEMENT_3D ( 'NONE', #254, #102, #46 ) ;
#129 = PRODUCT_CONTEXT ( 'NONE', #92, 'mechanical' ) ;
#130 = LINE ( 'NONE', #250, #141 ) ;
#131 = AXIS2_PLACEMENT_3D ( 'NONE', #163, #71, #229 ) ;
#132 = ADVANCED_FACE ( 'NONE', ( #86 ), #97, .T. ) ;
#133 = CIRCLE ( 'NONE', #164, 2.149999999999999023 ) ;
#134 = PRESENTATION_STYLE_ASSIGNMENT (( #54 ) ) ;
#135 = EDGE_LOOP ( 'NONE', ( #240, #238, #179, #3 ) ) ;
#136 = ORIENTED_EDGE ( 'NONE', *, *, #68, .T. ) ;
#137 = DIRECTION ( 'NONE',  ( 0.000000000000000000, 0.000000000000000000, -1.000000000000000000 ) ) ;
#138 = PRESENTATION_LAYER_ASSIGNMENT (  '', '', ( #252 ) ) ;
#139 = VERTEX_POINT ( 'NONE', #207 ) ;
#140 = ORIENTED_EDGE ( 'NONE', *, *, #44, .T. ) ;
#141 = VECTOR ( 'NONE', #90, 1000.000000000000000 ) ;
#142 = ADVANCED_FACE ( 'NONE', ( #83 ), #126, .F. ) ;
#143 = DIRECTION ( 'NONE',  ( 0.000000000000000000, 0.000000000000000000, -1.000000000000000000 ) ) ;
#144 = AXIS2_PLACEMENT_3D ( 'NONE', #60, #117, #20 ) ;
#145 = ADVANCED_BREP_SHAPE_REPRESENTATION ( 'J00.405.004.000', ( #170, #11 ), #213 ) ;
#146 = CARTESIAN_POINT ( 'NONE',  ( 0.000000000000000000, 2.632990618166808742E-16, 2.149999999999999467 ) ) ;
#147 =( LENGTH_UNIT ( ) NAMED_UNIT ( * ) SI_UNIT ( .MILLI., .METRE. ) );
#148 = PRODUCT_RELATED_PRODUCT_CATEGORY ( 'part', '', ( #235 ) ) ;
#149 = ORIENTED_EDGE ( 'NONE', *, *, #162, .T. ) ;
#150 =( LENGTH_UNIT ( ) NAMED_UNIT ( * ) SI_UNIT ( .MILLI., .METRE. ) );
#151 = DIRECTION ( 'NONE',  ( 0.000000000000000000, 0.000000000000000000, -1.000000000000000000 ) ) ;
#152 = ORIENTED_EDGE ( 'NONE', *, *, #155, .T. ) ;
#153 = DIRECTION ( 'NONE',  ( -0.1014897395041336331, 1.218323440677263481E-16, -0.9948365859654454413 ) ) ;
#154 = ORIENTED_EDGE ( 'NONE', *, *, #22, .T. ) ;
#155 = EDGE_CURVE ( 'NONE', #98, #139, #64, .T. ) ;
#156 = DIRECTION ( 'NONE',  ( 0.000000000000000000, 0.000000000000000000, -1.000000000000000000 ) ) ;
#157 = ORIENTED_EDGE ( 'NONE', *, *, #35, .T. ) ;
#158 = AXIS2_PLACEMENT_3D ( 'NONE', #47, #29, #206 ) ;
#159 = LINE ( 'NONE', #227, #82 ) ;
#160 = DIRECTION ( 'NONE',  ( 0.000000000000000000, 0.000000000000000000, -1.000000000000000000 ) ) ;
#161 = CARTESIAN_POINT ( 'NONE',  ( -0.4020760853018058856, 0.000000000000000000, -2.149999999999999023 ) ) ;
#162 = EDGE_CURVE ( 'NONE', #89, #139, #244, .T. ) ;
#163 = CARTESIAN_POINT ( 'NONE',  ( 7.206746031746035897, 0.000000000000000000, 0.000000000000000000 ) ) ;
#164 = AXIS2_PLACEMENT_3D ( 'NONE', #239, #42, #223 ) ;
#165 = CARTESIAN_POINT ( 'NONE',  ( 7.206746031746035897, 0.000000000000000000, -3.599999999999999201 ) ) ;
#166 = CARTESIAN_POINT ( 'NONE',  ( -0.4020760853018058856, 0.000000000000000000, 0.000000000000000000 ) ) ;
#167 = UNCERTAINTY_MEASURE_WITH_UNIT (LENGTH_MEASURE( 1.000000000000000082E-05 ), #108, 'distance_accuracy_value', 'NONE');
#168 = SHAPE_DEFINITION_REPRESENTATION ( #243, #145 ) ;
#169 = VERTEX_POINT ( 'NONE', #7 ) ;
#170 = MANIFOLD_SOLID_BREP ( 'Rotation1', #120 ) ;
#171 = EDGE_CURVE ( 'NONE', #21, #119, #111, .T. ) ;
#172 = CARTESIAN_POINT ( 'NONE',  ( 7.206746031746035897, 0.000000000000000000, 0.000000000000000000 ) ) ;
#173 = DIRECTION ( 'NONE',  ( 1.000000000000000000, -0.000000000000000000, -0.000000000000000000 ) ) ;
#174 = AXIS2_PLACEMENT_3D ( 'NONE', #105, #230, #16 ) ;
#175 =( NAMED_UNIT ( * ) SI_UNIT ( $, .STERADIAN. ) SOLID_ANGLE_UNIT ( ) );
#176 = EDGE_LOOP ( 'NONE', ( #140, #154, #41, #17 ) ) ;
#177 = AXIS2_PLACEMENT_3D ( 'NONE', #184, #203, #104 ) ;
#178 = DIRECTION ( 'NONE',  ( 1.000000000000000000, 0.000000000000000000, 0.000000000000000000 ) ) ;
#179 = ORIENTED_EDGE ( 'NONE', *, *, #208, .T. ) ;
#180 = VECTOR ( 'NONE', #9, 1000.000000000000000 ) ;
#181 = APPLICATION_CONTEXT ( 'automotive_design' ) ;
#182 = CARTESIAN_POINT ( 'NONE',  ( 0.000000000000000000, 0.000000000000000000, 0.000000000000000000 ) ) ;
#183 = ADVANCED_FACE ( 'NONE', ( #246 ), #65, .T. ) ;
#184 = CARTESIAN_POINT ( 'NONE',  ( -0.1479239146981933817, 0.000000000000000000, 0.000000000000000000 ) ) ;
#185 = DIRECTION ( 'NONE',  ( -1.000000000000000000, 0.000000000000000000, 0.000000000000000000 ) ) ;
#186 = ORIENTED_EDGE ( 'NONE', *, *, #74, .T. ) ;
#187 = FILL_AREA_STYLE_COLOUR ( '', #109 ) ;
#188 = CARTESIAN_POINT ( 'NONE',  ( 7.206746031746035897, 2.632990618166808249E-16, 2.149999999999999023 ) ) ;
#189 = EDGE_CURVE ( 'NONE', #21, #77, #210, .T. ) ;
#190 = VECTOR ( 'NONE', #33, 1000.000000000000227 ) ;
#191 =( NAMED_UNIT ( * ) PLANE_ANGLE_UNIT ( ) SI_UNIT ( $, .RADIAN. ) );
#192 = ORIENTED_EDGE ( 'NONE', *, *, #51, .T. ) ;
#193 = CONICAL_SURFACE ( 'NONE', #113, 2.149999999999999467, 1.469131547868511856 ) ;
#194 = SURFACE_STYLE_FILL_AREA ( #36 ) ;
#195 = SURFACE_SIDE_STYLE ('',( #194 ) ) ;
#196 = CIRCLE ( 'NONE', #144, 3.599999999999999201 ) ;
#197 = EDGE_LOOP ( 'NONE', ( #58, #38, #149, #40 ) ) ;
#198 = ORIENTED_EDGE ( 'NONE', *, *, #228, .T. ) ;
#199 = ADVANCED_FACE ( 'NONE', ( #248 ), #63, .F. ) ;
#200 = LINE ( 'NONE', #1, #241 ) ;
#201 = CARTESIAN_POINT ( 'NONE',  ( -0.5499999999999983791, 4.408728476930470165E-16, -3.599999999999998757 ) ) ;
#202 = PRODUCT_DEFINITION_CONTEXT ( 'detailed design', #181, 'design' ) ;
#203 = DIRECTION ( 'NONE',  ( 1.000000000000000000, -0.000000000000000000, -0.000000000000000000 ) ) ;
#204 = MECHANICAL_DESIGN_GEOMETRIC_PRESENTATION_REPRESENTATION (  '', ( #8 ), #245 ) ;
#205 =( NAMED_UNIT ( * ) SI_UNIT ( $, .STERADIAN. ) SOLID_ANGLE_UNIT ( ) );
#206 = DIRECTION ( 'NONE',  ( 0.000000000000000000, 0.000000000000000000, -1.000000000000000000 ) ) ;
#207 = CARTESIAN_POINT ( 'NONE',  ( -0.1479239146981933817, 0.000000000000000000, -3.599999999999999201 ) ) ;
#208 = EDGE_CURVE ( 'NONE', #21, #169, #130, .T. ) ;
#209 = VECTOR ( 'NONE', #231, 1000.000000000000000 ) ;
#210 = LINE ( 'NONE', #188, #180 ) ;
#211 = CARTESIAN_POINT ( 'NONE',  ( 0.000000000000000000, 0.000000000000000000, -2.149999999999999467 ) ) ;
#212 = VECTOR ( 'NONE', #153, 1000.000000000000000 ) ;
#213 =( GEOMETRIC_REPRESENTATION_CONTEXT ( 3 ) GLOBAL_UNCERTAINTY_ASSIGNED_CONTEXT ( ( #28 ) ) GLOBAL_UNIT_ASSIGNED_CONTEXT ( ( #150, #56, #57 ) ) REPRESENTATION_CONTEXT ( 'NONE', 'WORKASPACE' ) );
#214 = ORIENTED_EDGE ( 'NONE', *, *, #171, .T. ) ;
#215 = EDGE_CURVE ( 'NONE', #119, #98, #39, .T. ) ;
#216 = PRESENTATION_LAYER_ASSIGNMENT (  '', '', ( #8 ) ) ;
#217 = CARTESIAN_POINT ( 'NONE',  ( 0.000000000000000000, 0.000000000000000000, 0.000000000000000000 ) ) ;
#218 = EDGE_LOOP ( 'NONE', ( #214, #236, #45, #91 ) ) ;
#219 = DIRECTION ( 'NONE',  ( 1.000000000000000000, -0.000000000000000000, -0.000000000000000000 ) ) ;
#220 = EDGE_LOOP ( 'NONE', ( #242, #152, #136, #62 ) ) ;
#221 = ORIENTED_EDGE ( 'NONE', *, *, #215, .F. ) ;
#222 = CIRCLE ( 'NONE', #128, 3.599999999999998757 ) ;
#223 = DIRECTION ( 'NONE',  ( 0.000000000000000000, 0.000000000000000000, -1.000000000000000000 ) ) ;
#224 = CARTESIAN_POINT ( 'NONE',  ( -0.5499999999999983791, 4.408728476930470165E-16, -3.599999999999998757 ) ) ;
#225 = MECHANICAL_DESIGN_GEOMETRIC_PRESENTATION_REPRESENTATION (  '', ( #252 ), #118 ) ;
#226 = FACE_OUTER_BOUND ( 'NONE', #220, .T. ) ;
#227 = CARTESIAN_POINT ( 'NONE',  ( 0.000000000000000000, 0.000000000000000000, 2.149999999999999467 ) ) ;
#228 = EDGE_CURVE ( 'NONE', #77, #98, #99, .T. ) ;
#229 = DIRECTION ( 'NONE',  ( 0.000000000000000000, 0.000000000000000000, -1.000000000000000000 ) ) ;
#230 = DIRECTION ( 'NONE',  ( -1.000000000000000000, 0.000000000000000000, 0.000000000000000000 ) ) ;
#231 = DIRECTION ( 'NONE',  ( 1.000000000000000000, -0.000000000000000000, -0.000000000000000000 ) ) ;
#232 = AXIS2_PLACEMENT_3D ( 'NONE', #123, #49, #50 ) ;
#233 = ADVANCED_FACE ( 'NONE', ( #234 ), #13, .F. ) ;
#234 = FACE_OUTER_BOUND ( 'NONE', #12, .T. ) ;
#235 = PRODUCT ( 'J00.405.004.000', 'J00.405.004.000', '', ( #129 ) ) ;
#236 = ORIENTED_EDGE ( 'NONE', *, *, #69, .T. ) ;
#237 = AXIS2_PLACEMENT_3D ( 'NONE', #24, #122, #156 ) ;
#238 = ORIENTED_EDGE ( 'NONE', *, *, #27, .T. ) ;
#239 = CARTESIAN_POINT ( 'NONE',  ( -0.4020760853018058856, 0.000000000000000000, 0.000000000000000000 ) ) ;
#240 = ORIENTED_EDGE ( 'NONE', *, *, #69, .F. ) ;
#241 = VECTOR ( 'NONE', #219, 1000.000000000000000 ) ;
#242 = ORIENTED_EDGE ( 'NONE', *, *, #51, .F. ) ;
#243 = PRODUCT_DEFINITION_SHAPE ( 'NONE', 'NONE',  #26 ) ;
#244 = LINE ( 'NONE', #165, #53 ) ;
#245 =( GEOMETRIC_REPRESENTATION_CONTEXT ( 3 ) GLOBAL_UNCERTAINTY_ASSIGNED_CONTEXT ( ( #87 ) ) GLOBAL_UNIT_ASSIGNED_CONTEXT ( ( #147, #93, #175 ) ) REPRESENTATION_CONTEXT ( 'NONE', 'WORKASPACE' ) );
#246 = FACE_OUTER_BOUND ( 'NONE', #197, .T. ) ;
#247 = CARTESIAN_POINT ( 'NONE',  ( 0.000000000000000000, 0.000000000000000000, 0.000000000000000000 ) ) ;
#248 = FACE_OUTER_BOUND ( 'NONE', #218, .T. ) ;
#249 = PRESENTATION_STYLE_ASSIGNMENT (( #70 ) ) ;
#250 = CARTESIAN_POINT ( 'NONE',  ( -0.5499999999999983791, 0.000000000000000000, 3.599999999999998757 ) ) ;
#251 = DIRECTION ( 'NONE',  ( 0.000000000000000000, 0.000000000000000000, -1.000000000000000000 ) ) ;
#252 = STYLED_ITEM ( 'NONE', ( #249 ), #170 ) ;
#253 = APPLICATION_PROTOCOL_DEFINITION ( 'draft international standard', 'automotive_design', 1998, #92 ) ;
#254 = CARTESIAN_POINT ( 'NONE',  ( -0.5499999999999983791, 0.000000000000000000, 0.000000000000000000 ) ) ;
ENDSEC;
END-ISO-10303-21;
