ISO-10303-21;
HEADER;
FILE_DESCRIPTION (( 'STEP AP214' ),
    '1' );
FILE_NAME ('J00.405.005.000.STEP',
    '2024-06-20T05:19:16',
    ( '' ),
    ( '' ),
    'SwSTEP 2.0',
    'SolidWorks 2022',
    '' );
FILE_SCHEMA (( 'AUTOMOTIVE_DESIGN' ));
ENDSEC;

DATA;
#1 = DIRECTION ( 'NONE',  ( -0.1008641710789474899, 1.218401352191157545E-16, -0.9949002055445343995 ) ) ;
#2 = VECTOR ( 'NONE', #42, 1000.000000000000227 ) ;
#3 = ORIENTED_EDGE ( 'NONE', *, *, #143, .F. ) ;
#4 = CARTESIAN_POINT ( 'NONE',  ( -0.6499999999999995781, 0.000000000000000000, 4.599999999999998757 ) ) ;
#5 = FACE_OUTER_BOUND ( 'NONE', #15, .T. ) ;
#6 = ORIENTED_EDGE ( 'NONE', *, *, #252, .F. ) ;
#7 = VECTOR ( 'NONE', #162, 1000.000000000000000 ) ;
#8 = CARTESIAN_POINT ( 'NONE',  ( 7.206746031746035897, 5.633375276077822140E-16, 4.599999999999997868 ) ) ;
#9 = ADVANCED_FACE ( 'NONE', ( #250 ), #119, .F. ) ;
#10 = CARTESIAN_POINT ( 'NONE',  ( -0.6499999999999995781, 5.633375276077823126E-16, -4.599999999999998757 ) ) ;
#11 = DIRECTION ( 'NONE',  ( 1.000000000000000000, -0.000000000000000000, -0.000000000000000000 ) ) ;
#12 = SHAPE_DEFINITION_REPRESENTATION ( #213, #138 ) ;
#13 = ORIENTED_EDGE ( 'NONE', *, *, #87, .F. ) ;
#14 = AXIS2_PLACEMENT_3D ( 'NONE', #125, #201, #25 ) ;
#15 = EDGE_LOOP ( 'NONE', ( #135, #214, #210, #114 ) ) ;
#16 = ORIENTED_EDGE ( 'NONE', *, *, #137, .T. ) ;
#17 = CIRCLE ( 'NONE', #218, 2.649999999999999023 ) ;
#18 = EDGE_CURVE ( 'NONE', #151, #110, #239, .T. ) ;
#19 = DIRECTION ( 'NONE',  ( 1.000000000000000000, -0.000000000000000000, -0.000000000000000000 ) ) ;
#20 = CONICAL_SURFACE ( 'NONE', #251, 2.649999999999999023, 1.469760343000857228 ) ;
#21 = DIRECTION ( 'NONE',  ( -1.000000000000000000, 0.000000000000000000, 0.000000000000000000 ) ) ;
#22 = PRESENTATION_STYLE_ASSIGNMENT (( #183 ) ) ;
#23 = DIRECTION ( 'NONE',  ( 0.000000000000000000, 0.000000000000000000, -1.000000000000000000 ) ) ;
#24 = APPLICATION_CONTEXT ( 'automotive_design' ) ;
#25 = DIRECTION ( 'NONE',  ( 0.000000000000000000, 0.000000000000000000, -1.000000000000000000 ) ) ;
#26 = VECTOR ( 'NONE', #148, 1000.000000000000227 ) ;
#27 = CARTESIAN_POINT ( 'NONE',  ( -0.1976933289467930621, 5.633375276077822140E-16, 4.599999999999997868 ) ) ;
#28 = ORIENTED_EDGE ( 'NONE', *, *, #58, .F. ) ;
#29 =( NAMED_UNIT ( * ) SI_UNIT ( $, .STERADIAN. ) SOLID_ANGLE_UNIT ( ) );
#30 = EDGE_CURVE ( 'NONE', #158, #226, #242, .T. ) ;
#31 = ORIENTED_EDGE ( 'NONE', *, *, #229, .F. ) ;
#32 = ORIENTED_EDGE ( 'NONE', *, *, #143, .T. ) ;
#33 = ORIENTED_EDGE ( 'NONE', *, *, #18, .T. ) ;
#34 = CARTESIAN_POINT ( 'NONE',  ( -0.6499999999999995781, 0.000000000000000000, 0.000000000000000000 ) ) ;
#35 = APPLICATION_CONTEXT ( 'automotive_design' ) ;
#36 = ORIENTED_EDGE ( 'NONE', *, *, #222, .F. ) ;
#37 = PRODUCT_DEFINITION ( 'UNKNOWN', '', #48, #219 ) ;
#38 = VECTOR ( 'NONE', #134, 1000.000000000000000 ) ;
#39 = STYLED_ITEM ( 'NONE', ( #153 ), #138 ) ;
#40 = FILL_AREA_STYLE_COLOUR ( '', #182 ) ;
#41 = AXIS2_PLACEMENT_3D ( 'NONE', #57, #11, #94 ) ;
#42 = DIRECTION ( 'NONE',  ( -0.1008641710789474899, 0.000000000000000000, 0.9949002055445343995 ) ) ;
#43 = ADVANCED_FACE ( 'NONE', ( #136 ), #247, .F. ) ;
#44 = DIRECTION ( 'NONE',  ( 1.000000000000000000, -0.000000000000000000, -0.000000000000000000 ) ) ;
#45 = LINE ( 'NONE', #131, #38 ) ;
#46 = CARTESIAN_POINT ( 'NONE',  ( -0.1976933289467930621, 0.000000000000000000, 0.000000000000000000 ) ) ;
#47 = ADVANCED_FACE ( 'NONE', ( #96 ), #20, .T. ) ;
#48 = PRODUCT_DEFINITION_FORMATION_WITH_SPECIFIED_SOURCE ( 'ANY', '', #55, .NOT_KNOWN. ) ;
#49 = LINE ( 'NONE', #8, #76 ) ;
#50 = CARTESIAN_POINT ( 'NONE',  ( 0.000000000000000000, 0.000000000000000000, -2.649999999999999023 ) ) ;
#51 = EDGE_LOOP ( 'NONE', ( #16, #117, #95, #13 ) ) ;
#52 = EDGE_LOOP ( 'NONE', ( #3, #33, #191, #167 ) ) ;
#53 = AXIS2_PLACEMENT_3D ( 'NONE', #34, #116, #59 ) ;
#54 =( NAMED_UNIT ( * ) SI_UNIT ( $, .STERADIAN. ) SOLID_ANGLE_UNIT ( ) );
#55 = PRODUCT ( 'J00.405.005.000', 'J00.405.005.000', '', ( #81 ) ) ;
#56 = ORIENTED_EDGE ( 'NONE', *, *, #61, .T. ) ;
#57 = CARTESIAN_POINT ( 'NONE',  ( -0.4523066710532073209, 0.000000000000000000, 0.000000000000000000 ) ) ;
#58 = EDGE_CURVE ( 'NONE', #186, #97, #187, .T. ) ;
#59 = DIRECTION ( 'NONE',  ( 0.000000000000000000, 0.000000000000000000, 1.000000000000000000 ) ) ;
#60 = AXIS2_PLACEMENT_3D ( 'NONE', #231, #207, #78 ) ;
#61 = EDGE_CURVE ( 'NONE', #226, #186, #199, .T. ) ;
#62 = ADVANCED_FACE ( 'NONE', ( #159 ), #175, .T. ) ;
#63 = DIRECTION ( 'NONE',  ( 1.000000000000000000, -0.000000000000000000, -0.000000000000000000 ) ) ;
#64 = SURFACE_SIDE_STYLE ('',( #145 ) ) ;
#65 = VECTOR ( 'NONE', #70, 1000.000000000000227 ) ;
#66 =( GEOMETRIC_REPRESENTATION_CONTEXT ( 3 ) GLOBAL_UNCERTAINTY_ASSIGNED_CONTEXT ( ( #103 ) ) GLOBAL_UNIT_ASSIGNED_CONTEXT ( ( #128, #149, #54 ) ) REPRESENTATION_CONTEXT ( 'NONE', 'WORKASPACE' ) );
#67 = UNCERTAINTY_MEASURE_WITH_UNIT (LENGTH_MEASURE( 1.000000000000000082E-05 ), #166, 'distance_accuracy_value', 'NONE');
#68 = CARTESIAN_POINT ( 'NONE',  ( -0.6499999999999995781, 5.633375276077823126E-16, -4.599999999999998757 ) ) ;
#69 = SURFACE_STYLE_FILL_AREA ( #88 ) ;
#70 = DIRECTION ( 'NONE',  ( -0.1008641710789470458, 0.000000000000000000, 0.9949002055445343995 ) ) ;
#71 = MECHANICAL_DESIGN_GEOMETRIC_PRESENTATION_REPRESENTATION (  '', ( #80 ), #221 ) ;
#72 = AXIS2_PLACEMENT_3D ( 'NONE', #46, #184, #89 ) ;
#73 = CARTESIAN_POINT ( 'NONE',  ( -0.6499999999999995781, 0.000000000000000000, 0.000000000000000000 ) ) ;
#74 = SURFACE_SIDE_STYLE ('',( #69 ) ) ;
#75 = ORIENTED_EDGE ( 'NONE', *, *, #142, .F. ) ;
#76 = VECTOR ( 'NONE', #209, 1000.000000000000000 ) ;
#77 = ORIENTED_EDGE ( 'NONE', *, *, #152, .F. ) ;
#78 = DIRECTION ( 'NONE',  ( 0.000000000000000000, 0.000000000000000000, 1.000000000000000000 ) ) ;
#79 = DIRECTION ( 'NONE',  ( -1.000000000000000000, 0.000000000000000000, 0.000000000000000000 ) ) ;
#80 = STYLED_ITEM ( 'NONE', ( #22 ), #98 ) ;
#81 = PRODUCT_CONTEXT ( 'NONE', #24, 'mechanical' ) ;
#82 = PRESENTATION_LAYER_ASSIGNMENT (  '', '', ( #80 ) ) ;
#83 = FACE_OUTER_BOUND ( 'NONE', #139, .T. ) ;
#84 = CARTESIAN_POINT ( 'NONE',  ( 7.206746031746035897, 0.000000000000000000, 0.000000000000000000 ) ) ;
#85 = EDGE_CURVE ( 'NONE', #110, #226, #105, .T. ) ;
#86 = CONICAL_SURFACE ( 'NONE', #215, 2.649999999999999023, 1.469760343000857228 ) ;
#87 = EDGE_CURVE ( 'NONE', #192, #97, #124, .T. ) ;
#88 = FILL_AREA_STYLE ('',( #243 ) ) ;
#89 = DIRECTION ( 'NONE',  ( 0.000000000000000000, 0.000000000000000000, -1.000000000000000000 ) ) ;
#90 = AXIS2_PLACEMENT_3D ( 'NONE', #84, #200, #179 ) ;
#91 = DIRECTION ( 'NONE',  ( 1.000000000000000000, -0.000000000000000000, -0.000000000000000000 ) ) ;
#92 = EDGE_CURVE ( 'NONE', #110, #151, #194, .T. ) ;
#93 = VERTEX_POINT ( 'NONE', #141 ) ;
#94 = DIRECTION ( 'NONE',  ( 0.000000000000000000, 0.000000000000000000, -1.000000000000000000 ) ) ;
#95 = ORIENTED_EDGE ( 'NONE', *, *, #249, .F. ) ;
#96 = FACE_OUTER_BOUND ( 'NONE', #156, .T. ) ;
#97 = VERTEX_POINT ( 'NONE', #236 ) ;
#98 = MANIFOLD_SOLID_BREP ( 'Rotation1', #208 ) ;
#99 = AXIS2_PLACEMENT_3D ( 'NONE', #111, #190, #107 ) ;
#100 =( LENGTH_UNIT ( ) NAMED_UNIT ( * ) SI_UNIT ( .MILLI., .METRE. ) );
#101 = CARTESIAN_POINT ( 'NONE',  ( 7.206746031746035897, 3.245314017740484976E-16, 2.649999999999999023 ) ) ;
#102 = CARTESIAN_POINT ( 'NONE',  ( 0.000000000000000000, 0.000000000000000000, 0.000000000000000000 ) ) ;
#103 = UNCERTAINTY_MEASURE_WITH_UNIT (LENGTH_MEASURE( 1.000000000000000082E-05 ), #128, 'distance_accuracy_value', 'NONE');
#104 = LINE ( 'NONE', #180, #109 ) ;
#105 = LINE ( 'NONE', #101, #7 ) ;
#106 = DIRECTION ( 'NONE',  ( 1.000000000000000000, -0.000000000000000000, -0.000000000000000000 ) ) ;
#107 = DIRECTION ( 'NONE',  ( 0.000000000000000000, 0.000000000000000000, -1.000000000000000000 ) ) ;
#108 = ADVANCED_FACE ( 'NONE', ( #121 ), #86, .T. ) ;
#109 = VECTOR ( 'NONE', #1, 1000.000000000000227 ) ;
#110 = VERTEX_POINT ( 'NONE', #123 ) ;
#111 = CARTESIAN_POINT ( 'NONE',  ( 7.206746031746035897, 0.000000000000000000, 0.000000000000000000 ) ) ;
#112 = ORIENTED_EDGE ( 'NONE', *, *, #85, .T. ) ;
#113 = APPLICATION_PROTOCOL_DEFINITION ( 'draft international standard', 'automotive_design', 1998, #24 ) ;
#114 = ORIENTED_EDGE ( 'NONE', *, *, #30, .T. ) ;
#115 = DIRECTION ( 'NONE',  ( 0.000000000000000000, 0.000000000000000000, 1.000000000000000000 ) ) ;
#116 = DIRECTION ( 'NONE',  ( -1.000000000000000000, 0.000000000000000000, 0.000000000000000000 ) ) ;
#117 = ORIENTED_EDGE ( 'NONE', *, *, #222, .T. ) ;
#118 =( NAMED_UNIT ( * ) SI_UNIT ( $, .STERADIAN. ) SOLID_ANGLE_UNIT ( ) );
#119 = CONICAL_SURFACE ( 'NONE', #60, 4.599999999999998757, 1.469760343000857672 ) ;
#120 = CIRCLE ( 'NONE', #233, 4.599999999999998757 ) ;
#121 = FACE_OUTER_BOUND ( 'NONE', #232, .T. ) ;
#122 = AXIS2_PLACEMENT_3D ( 'NONE', #253, #19, #177 ) ;
#123 = CARTESIAN_POINT ( 'NONE',  ( -0.4523066710532073209, 3.245314017740484976E-16, 2.649999999999999023 ) ) ;
#124 = LINE ( 'NONE', #234, #126 ) ;
#125 = CARTESIAN_POINT ( 'NONE',  ( -0.1976933289467930621, 0.000000000000000000, 0.000000000000000000 ) ) ;
#126 = VECTOR ( 'NONE', #63, 1000.000000000000000 ) ;
#127 = MECHANICAL_DESIGN_GEOMETRIC_PRESENTATION_REPRESENTATION (  '', ( #39 ), #66 ) ;
#128 =( LENGTH_UNIT ( ) NAMED_UNIT ( * ) SI_UNIT ( .MILLI., .METRE. ) );
#129 = DIRECTION ( 'NONE',  ( 0.000000000000000000, 0.000000000000000000, -1.000000000000000000 ) ) ;
#130 = ADVANCED_FACE ( 'NONE', ( #83 ), #254, .F. ) ;
#131 = CARTESIAN_POINT ( 'NONE',  ( 7.206746031746035897, 0.000000000000000000, -2.649999999999999023 ) ) ;
#132 = ORIENTED_EDGE ( 'NONE', *, *, #252, .T. ) ;
#133 = ORIENTED_EDGE ( 'NONE', *, *, #142, .T. ) ;
#134 = DIRECTION ( 'NONE',  ( 1.000000000000000000, -0.000000000000000000, -0.000000000000000000 ) ) ;
#135 = ORIENTED_EDGE ( 'NONE', *, *, #85, .F. ) ;
#136 = FACE_OUTER_BOUND ( 'NONE', #154, .T. ) ;
#137 = EDGE_CURVE ( 'NONE', #192, #93, #120, .T. ) ;
#138 = ADVANCED_BREP_SHAPE_REPRESENTATION ( 'J00.405.005.000', ( #98, #171 ), #204 ) ;
#139 = EDGE_LOOP ( 'NONE', ( #197, #112, #244, #77 ) ) ;
#140 = CIRCLE ( 'NONE', #174, 4.599999999999998757 ) ;
#141 = CARTESIAN_POINT ( 'NONE',  ( -0.6499999999999995781, 0.000000000000000000, 4.599999999999998757 ) ) ;
#142 = EDGE_CURVE ( 'NONE', #158, #97, #104, .T. ) ;
#143 = EDGE_CURVE ( 'NONE', #151, #192, #240, .T. ) ;
#144 = CARTESIAN_POINT ( 'NONE',  ( -0.4523066710532073209, 0.000000000000000000, 0.000000000000000000 ) ) ;
#145 = SURFACE_STYLE_FILL_AREA ( #202 ) ;
#146 = CIRCLE ( 'NONE', #72, 4.599999999999997868 ) ;
#147 = CARTESIAN_POINT ( 'NONE',  ( 0.000000000000000000, 0.000000000000000000, 2.649999999999999023 ) ) ;
#148 = DIRECTION ( 'NONE',  ( -0.1008641710789470458, 1.218401352191157545E-16, -0.9949002055445343995 ) ) ;
#149 =( NAMED_UNIT ( * ) PLANE_ANGLE_UNIT ( ) SI_UNIT ( $, .RADIAN. ) );
#150 = LINE ( 'NONE', #4, #65 ) ;
#151 = VERTEX_POINT ( 'NONE', #220 ) ;
#152 = EDGE_CURVE ( 'NONE', #151, #158, #45, .T. ) ;
#153 = PRESENTATION_STYLE_ASSIGNMENT (( #168 ) ) ;
#154 = EDGE_LOOP ( 'NONE', ( #170, #32, #6, #157 ) ) ;
#155 = CARTESIAN_POINT ( 'NONE',  ( 0.000000000000000000, 3.245314017740484976E-16, 2.649999999999999023 ) ) ;
#156 = EDGE_LOOP ( 'NONE', ( #173, #133, #246, #181 ) ) ;
#157 = ORIENTED_EDGE ( 'NONE', *, *, #203, .F. ) ;
#158 = VERTEX_POINT ( 'NONE', #50 ) ;
#159 = FACE_OUTER_BOUND ( 'NONE', #227, .T. ) ;
#160 = AXIS2_PLACEMENT_3D ( 'NONE', #144, #164, #161 ) ;
#161 = DIRECTION ( 'NONE',  ( 0.000000000000000000, 0.000000000000000000, -1.000000000000000000 ) ) ;
#162 = DIRECTION ( 'NONE',  ( 1.000000000000000000, -0.000000000000000000, -0.000000000000000000 ) ) ;
#163 = AXIS2_PLACEMENT_3D ( 'NONE', #241, #225, #211 ) ;
#164 = DIRECTION ( 'NONE',  ( 1.000000000000000000, -0.000000000000000000, -0.000000000000000000 ) ) ;
#165 = FACE_OUTER_BOUND ( 'NONE', #51, .T. ) ;
#166 =( LENGTH_UNIT ( ) NAMED_UNIT ( * ) SI_UNIT ( .MILLI., .METRE. ) );
#167 = ORIENTED_EDGE ( 'NONE', *, *, #137, .F. ) ;
#168 = SURFACE_STYLE_USAGE ( .BOTH. , #74 ) ;
#169 = ADVANCED_FACE ( 'NONE', ( #5 ), #188, .F. ) ;
#170 = ORIENTED_EDGE ( 'NONE', *, *, #92, .T. ) ;
#171 = AXIS2_PLACEMENT_3D ( 'NONE', #196, #115, #193 ) ;
#172 = CARTESIAN_POINT ( 'NONE',  ( 0.000000000000000000, 0.000000000000000000, 0.000000000000000000 ) ) ;
#173 = ORIENTED_EDGE ( 'NONE', *, *, #30, .F. ) ;
#174 = AXIS2_PLACEMENT_3D ( 'NONE', #73, #91, #205 ) ;
#175 = CYLINDRICAL_SURFACE ( 'NONE', #122, 4.599999999999997868 ) ;
#176 = AXIS2_PLACEMENT_3D ( 'NONE', #228, #195, #189 ) ;
#177 = DIRECTION ( 'NONE',  ( 0.000000000000000000, 0.000000000000000000, -1.000000000000000000 ) ) ;
#178 = UNCERTAINTY_MEASURE_WITH_UNIT (LENGTH_MEASURE( 1.000000000000000082E-05 ), #100, 'distance_accuracy_value', 'NONE');
#179 = DIRECTION ( 'NONE',  ( 0.000000000000000000, 0.000000000000000000, -1.000000000000000000 ) ) ;
#180 = CARTESIAN_POINT ( 'NONE',  ( 0.000000000000000000, 3.245314017740484976E-16, -2.649999999999999023 ) ) ;
#181 = ORIENTED_EDGE ( 'NONE', *, *, #61, .F. ) ;
#182 = COLOUR_RGB ( '',0.7529411764705882248, 0.7529411764705882248, 0.7529411764705882248 ) ;
#183 = SURFACE_STYLE_USAGE ( .BOTH. , #64 ) ;
#184 = DIRECTION ( 'NONE',  ( 1.000000000000000000, -0.000000000000000000, -0.000000000000000000 ) ) ;
#185 = CYLINDRICAL_SURFACE ( 'NONE', #163, 4.599999999999997868 ) ;
#186 = VERTEX_POINT ( 'NONE', #27 ) ;
#187 = CIRCLE ( 'NONE', #14, 4.599999999999997868 ) ;
#188 = CYLINDRICAL_SURFACE ( 'NONE', #99, 2.649999999999999023 ) ;
#189 = DIRECTION ( 'NONE',  ( 0.000000000000000000, 0.000000000000000000, -1.000000000000000000 ) ) ;
#190 = DIRECTION ( 'NONE',  ( 1.000000000000000000, -0.000000000000000000, -0.000000000000000000 ) ) ;
#191 = ORIENTED_EDGE ( 'NONE', *, *, #203, .T. ) ;
#192 = VERTEX_POINT ( 'NONE', #10 ) ;
#193 = DIRECTION ( 'NONE',  ( 1.000000000000000000, 0.000000000000000000, 0.000000000000000000 ) ) ;
#194 = CIRCLE ( 'NONE', #160, 2.649999999999999023 ) ;
#195 = DIRECTION ( 'NONE',  ( 1.000000000000000000, -0.000000000000000000, -0.000000000000000000 ) ) ;
#196 = CARTESIAN_POINT ( 'NONE',  ( 0.000000000000000000, 0.000000000000000000, 0.000000000000000000 ) ) ;
#197 = ORIENTED_EDGE ( 'NONE', *, *, #92, .F. ) ;
#198 = ADVANCED_FACE ( 'NONE', ( #165 ), #185, .T. ) ;
#199 = LINE ( 'NONE', #147, #2 ) ;
#200 = DIRECTION ( 'NONE',  ( 1.000000000000000000, -0.000000000000000000, -0.000000000000000000 ) ) ;
#201 = DIRECTION ( 'NONE',  ( 1.000000000000000000, -0.000000000000000000, -0.000000000000000000 ) ) ;
#202 = FILL_AREA_STYLE ('',( #40 ) ) ;
#203 = EDGE_CURVE ( 'NONE', #110, #93, #150, .T. ) ;
#204 =( GEOMETRIC_REPRESENTATION_CONTEXT ( 3 ) GLOBAL_UNCERTAINTY_ASSIGNED_CONTEXT ( ( #67 ) ) GLOBAL_UNIT_ASSIGNED_CONTEXT ( ( #166, #224, #29 ) ) REPRESENTATION_CONTEXT ( 'NONE', 'WORKASPACE' ) );
#205 = DIRECTION ( 'NONE',  ( 0.000000000000000000, 0.000000000000000000, -1.000000000000000000 ) ) ;
#206 = CARTESIAN_POINT ( 'NONE',  ( 0.000000000000000000, 0.000000000000000000, 0.000000000000000000 ) ) ;
#207 = DIRECTION ( 'NONE',  ( -1.000000000000000000, 0.000000000000000000, 0.000000000000000000 ) ) ;
#208 = CLOSED_SHELL ( 'NONE', ( #47, #198, #43, #130, #169, #9, #62, #108 ) ) ;
#209 = DIRECTION ( 'NONE',  ( 1.000000000000000000, -0.000000000000000000, -0.000000000000000000 ) ) ;
#210 = ORIENTED_EDGE ( 'NONE', *, *, #152, .T. ) ;
#211 = DIRECTION ( 'NONE',  ( 0.000000000000000000, 0.000000000000000000, -1.000000000000000000 ) ) ;
#212 = ORIENTED_EDGE ( 'NONE', *, *, #87, .T. ) ;
#213 = PRODUCT_DEFINITION_SHAPE ( 'NONE', 'NONE',  #37 ) ;
#214 = ORIENTED_EDGE ( 'NONE', *, *, #18, .F. ) ;
#215 = AXIS2_PLACEMENT_3D ( 'NONE', #102, #21, #237 ) ;
#216 = DIRECTION ( 'NONE',  ( 0.000000000000000000, 0.000000000000000000, 1.000000000000000000 ) ) ;
#217 =( NAMED_UNIT ( * ) PLANE_ANGLE_UNIT ( ) SI_UNIT ( $, .RADIAN. ) );
#218 = AXIS2_PLACEMENT_3D ( 'NONE', #206, #106, #129 ) ;
#219 = PRODUCT_DEFINITION_CONTEXT ( 'detailed design', #35, 'design' ) ;
#220 = CARTESIAN_POINT ( 'NONE',  ( -0.4523066710532073209, 0.000000000000000000, -2.649999999999999023 ) ) ;
#221 =( GEOMETRIC_REPRESENTATION_CONTEXT ( 3 ) GLOBAL_UNCERTAINTY_ASSIGNED_CONTEXT ( ( #178 ) ) GLOBAL_UNIT_ASSIGNED_CONTEXT ( ( #100, #217, #118 ) ) REPRESENTATION_CONTEXT ( 'NONE', 'WORKASPACE' ) );
#222 = EDGE_CURVE ( 'NONE', #93, #186, #49, .T. ) ;
#223 = PRESENTATION_LAYER_ASSIGNMENT (  '', '', ( #39 ) ) ;
#224 =( NAMED_UNIT ( * ) PLANE_ANGLE_UNIT ( ) SI_UNIT ( $, .RADIAN. ) );
#225 = DIRECTION ( 'NONE',  ( 1.000000000000000000, -0.000000000000000000, -0.000000000000000000 ) ) ;
#226 = VERTEX_POINT ( 'NONE', #155 ) ;
#227 = EDGE_LOOP ( 'NONE', ( #36, #132, #212, #28 ) ) ;
#228 = CARTESIAN_POINT ( 'NONE',  ( 0.000000000000000000, 0.000000000000000000, 0.000000000000000000 ) ) ;
#229 = EDGE_CURVE ( 'NONE', #226, #158, #17, .T. ) ;
#230 = APPLICATION_PROTOCOL_DEFINITION ( 'draft international standard', 'automotive_design', 1998, #35 ) ;
#231 = CARTESIAN_POINT ( 'NONE',  ( -0.6499999999999995781, 0.000000000000000000, 0.000000000000000000 ) ) ;
#232 = EDGE_LOOP ( 'NONE', ( #75, #31, #56, #248 ) ) ;
#233 = AXIS2_PLACEMENT_3D ( 'NONE', #238, #44, #23 ) ;
#234 = CARTESIAN_POINT ( 'NONE',  ( 7.206746031746035897, 0.000000000000000000, -4.599999999999997868 ) ) ;
#235 = COLOUR_RGB ( '',0.7529411764705882248, 0.7529411764705882248, 0.7529411764705882248 ) ;
#236 = CARTESIAN_POINT ( 'NONE',  ( -0.1976933289467930621, 0.000000000000000000, -4.599999999999997868 ) ) ;
#237 = DIRECTION ( 'NONE',  ( 0.000000000000000000, 0.000000000000000000, 1.000000000000000000 ) ) ;
#238 = CARTESIAN_POINT ( 'NONE',  ( -0.6499999999999995781, 0.000000000000000000, 0.000000000000000000 ) ) ;
#239 = CIRCLE ( 'NONE', #41, 2.649999999999999023 ) ;
#240 = LINE ( 'NONE', #68, #26 ) ;
#241 = CARTESIAN_POINT ( 'NONE',  ( 7.206746031746035897, 0.000000000000000000, 0.000000000000000000 ) ) ;
#242 = CIRCLE ( 'NONE', #176, 2.649999999999999023 ) ;
#243 = FILL_AREA_STYLE_COLOUR ( '', #235 ) ;
#244 = ORIENTED_EDGE ( 'NONE', *, *, #229, .T. ) ;
#245 = PRODUCT_RELATED_PRODUCT_CATEGORY ( 'part', '', ( #55 ) ) ;
#246 = ORIENTED_EDGE ( 'NONE', *, *, #249, .T. ) ;
#247 = CONICAL_SURFACE ( 'NONE', #53, 4.599999999999998757, 1.469760343000857672 ) ;
#248 = ORIENTED_EDGE ( 'NONE', *, *, #58, .T. ) ;
#249 = EDGE_CURVE ( 'NONE', #97, #186, #146, .T. ) ;
#250 = FACE_OUTER_BOUND ( 'NONE', #52, .T. ) ;
#251 = AXIS2_PLACEMENT_3D ( 'NONE', #172, #79, #216 ) ;
#252 = EDGE_CURVE ( 'NONE', #93, #192, #140, .T. ) ;
#253 = CARTESIAN_POINT ( 'NONE',  ( 7.206746031746035897, 0.000000000000000000, 0.000000000000000000 ) ) ;
#254 = CYLINDRICAL_SURFACE ( 'NONE', #90, 2.649999999999999023 ) ;
ENDSEC;
END-ISO-10303-21;
