ISO-10303-21;
HEADER;
FILE_DESCRIPTION (( 'STEP AP214' ),
    '1' );
FILE_NAME ('J00.405.006.000.STEP',
    '2024-06-19T13:08:55',
    ( '' ),
    ( '' ),
    'SwSTEP 2.0',
    'SolidWorks 2022',
    '' );
FILE_SCHEMA (( 'AUTOMOTIVE_DESIGN' ));
ENDSEC;

DATA;
#1 = LINE ( 'NONE', #115, #9 ) ;
#2 = AXIS2_PLACEMENT_3D ( 'NONE', #144, #40, #141 ) ;
#3 = CARTESIAN_POINT ( 'NONE',  ( -0.4499999999999999001, 0.000000000000000000, -5.099999999999998757 ) ) ;
#4 = FACE_OUTER_BOUND ( 'NONE', #44, .T. ) ;
#5 = DIRECTION ( 'NONE',  ( 0.000000000000000000, 0.000000000000000000, -1.000000000000000000 ) ) ;
#6 = CARTESIAN_POINT ( 'NONE',  ( -0.4499999999999999001, 0.000000000000000000, 0.000000000000000000 ) ) ;
#7 = CIRCLE ( 'NONE', #145, 5.099999999999998757 ) ;
#8 = SURFACE_STYLE_USAGE ( .BOTH. , #163 ) ;
#9 = VECTOR ( 'NONE', #97, 1000.000000000000000 ) ;
#10 = STYLED_ITEM ( 'NONE', ( #49 ), #127 ) ;
#11 = EDGE_LOOP ( 'NONE', ( #213, #131 ) ) ;
#12 = ORIENTED_EDGE ( 'NONE', *, *, #56, .T. ) ;
#13 = CARTESIAN_POINT ( 'NONE',  ( -1.897353801849632760E-16, 3.199999999999999289, 0.000000000000000000 ) ) ;
#14 = FILL_AREA_STYLE_COLOUR ( '', #77 ) ;
#15 = ORIENTED_EDGE ( 'NONE', *, *, #181, .T. ) ;
#16 = VERTEX_POINT ( 'NONE', #195 ) ;
#17 = PRODUCT ( 'J00.405.006.000', 'J00.405.006.000', '', ( #199 ) ) ;
#18 = CARTESIAN_POINT ( 'NONE',  ( 0.000000000000000000, 0.000000000000000000, 0.000000000000000000 ) ) ;
#19 = DIRECTION ( 'NONE',  ( 0.000000000000000000, 0.000000000000000000, 1.000000000000000000 ) ) ;
#20 = DIRECTION ( 'NONE',  ( 0.000000000000000000, 0.000000000000000000, -1.000000000000000000 ) ) ;
#21 = UNCERTAINTY_MEASURE_WITH_UNIT (LENGTH_MEASURE( 1.000000000000000082E-05 ), #73, 'distance_accuracy_value', 'NONE');
#22 = CARTESIAN_POINT ( 'NONE',  ( 7.206746031746035897, 3.918869757271529474E-16, 3.199999999999999289 ) ) ;
#23 = DIRECTION ( 'NONE',  ( 0.000000000000000000, 0.000000000000000000, -1.000000000000000000 ) ) ;
#24 = SURFACE_STYLE_FILL_AREA ( #164 ) ;
#25 = ADVANCED_FACE ( 'NONE', ( #214, #134 ), #84, .T. ) ;
#26 =( GEOMETRIC_REPRESENTATION_CONTEXT ( 3 ) GLOBAL_UNCERTAINTY_ASSIGNED_CONTEXT ( ( #75 ) ) GLOBAL_UNIT_ASSIGNED_CONTEXT ( ( #34, #53, #133 ) ) REPRESENTATION_CONTEXT ( 'NONE', 'WORKASPACE' ) );
#27 = ADVANCED_FACE ( 'NONE', ( #55 ), #157, .T. ) ;
#28 = AXIS2_PLACEMENT_3D ( 'NONE', #6, #183, #140 ) ;
#29 = FACE_OUTER_BOUND ( 'NONE', #82, .T. ) ;
#30 = VERTEX_POINT ( 'NONE', #153 ) ;
#31 = ORIENTED_EDGE ( 'NONE', *, *, #149, .T. ) ;
#32 = CARTESIAN_POINT ( 'NONE',  ( 7.206746031746035897, 0.000000000000000000, -5.099999999999998757 ) ) ;
#33 = APPLICATION_CONTEXT ( 'automotive_design' ) ;
#34 =( LENGTH_UNIT ( ) NAMED_UNIT ( * ) SI_UNIT ( .MILLI., .METRE. ) );
#35 = DIRECTION ( 'NONE',  ( 1.000000000000000000, -0.000000000000000000, -0.000000000000000000 ) ) ;
#36 = EDGE_CURVE ( 'NONE', #101, #129, #119, .T. ) ;
#37 =( LENGTH_UNIT ( ) NAMED_UNIT ( * ) SI_UNIT ( .MILLI., .METRE. ) );
#38 = FILL_AREA_STYLE_COLOUR ( '', #128 ) ;
#39 = PRODUCT_DEFINITION_CONTEXT ( 'detailed design', #61, 'design' ) ;
#40 = DIRECTION ( 'NONE',  ( 1.000000000000000000, -0.000000000000000000, -0.000000000000000000 ) ) ;
#41 =( GEOMETRIC_REPRESENTATION_CONTEXT ( 3 ) GLOBAL_UNCERTAINTY_ASSIGNED_CONTEXT ( ( #192 ) ) GLOBAL_UNIT_ASSIGNED_CONTEXT ( ( #37, #202, #171 ) ) REPRESENTATION_CONTEXT ( 'NONE', 'WORKASPACE' ) );
#42 = PRODUCT_DEFINITION ( 'UNKNOWN', '', #83, #39 ) ;
#43 = ORIENTED_EDGE ( 'NONE', *, *, #146, .T. ) ;
#44 = EDGE_LOOP ( 'NONE', ( #112, #31, #15, #99 ) ) ;
#45 = AXIS2_PLACEMENT_3D ( 'NONE', #201, #206, #176 ) ;
#46 = ORIENTED_EDGE ( 'NONE', *, *, #78, .F. ) ;
#47 = DIRECTION ( 'NONE',  ( 1.000000000000000000, -0.000000000000000000, -0.000000000000000000 ) ) ;
#48 = AXIS2_PLACEMENT_3D ( 'NONE', #18, #152, #136 ) ;
#49 = PRESENTATION_STYLE_ASSIGNMENT (( #159 ) ) ;
#50 = VERTEX_POINT ( 'NONE', #132 ) ;
#51 = EDGE_LOOP ( 'NONE', ( #67, #65, #182, #139 ) ) ;
#52 = VERTEX_POINT ( 'NONE', #154 ) ;
#53 =( NAMED_UNIT ( * ) PLANE_ANGLE_UNIT ( ) SI_UNIT ( $, .RADIAN. ) );
#54 = MECHANICAL_DESIGN_GEOMETRIC_PRESENTATION_REPRESENTATION (  '', ( #212 ), #94 ) ;
#55 = FACE_OUTER_BOUND ( 'NONE', #210, .T. ) ;
#56 = EDGE_CURVE ( 'NONE', #50, #52, #169, .T. ) ;
#57 =( NAMED_UNIT ( * ) SI_UNIT ( $, .STERADIAN. ) SOLID_ANGLE_UNIT ( ) );
#58 = FACE_OUTER_BOUND ( 'NONE', #51, .T. ) ;
#59 = EDGE_CURVE ( 'NONE', #129, #16, #161, .T. ) ;
#60 = CARTESIAN_POINT ( 'NONE',  ( 7.206746031746035897, 0.000000000000000000, 0.000000000000000000 ) ) ;
#61 = APPLICATION_CONTEXT ( 'automotive_design' ) ;
#62 = PRODUCT_RELATED_PRODUCT_CATEGORY ( 'part', '', ( #17 ) ) ;
#63 = ORIENTED_EDGE ( 'NONE', *, *, #105, .T. ) ;
#64 = VECTOR ( 'NONE', #66, 1000.000000000000000 ) ;
#65 = ORIENTED_EDGE ( 'NONE', *, *, #78, .T. ) ;
#66 = DIRECTION ( 'NONE',  ( 1.000000000000000000, -0.000000000000000000, -0.000000000000000000 ) ) ;
#67 = ORIENTED_EDGE ( 'NONE', *, *, #88, .F. ) ;
#68 = CARTESIAN_POINT ( 'NONE',  ( 0.000000000000000000, 0.000000000000000000, 0.000000000000000000 ) ) ;
#69 = DIRECTION ( 'NONE',  ( 1.000000000000000000, -0.000000000000000000, -0.000000000000000000 ) ) ;
#70 = CARTESIAN_POINT ( 'NONE',  ( -0.4499999999999999001, 0.000000000000000000, 0.000000000000000000 ) ) ;
#71 = CARTESIAN_POINT ( 'NONE',  ( 0.000000000000000000, 0.000000000000000000, 0.000000000000000000 ) ) ;
#72 = DIRECTION ( 'NONE',  ( 0.000000000000000000, 0.000000000000000000, -1.000000000000000000 ) ) ;
#73 =( LENGTH_UNIT ( ) NAMED_UNIT ( * ) SI_UNIT ( .MILLI., .METRE. ) );
#74 = DIRECTION ( 'NONE',  ( 1.000000000000000000, -0.000000000000000000, -0.000000000000000000 ) ) ;
#75 = UNCERTAINTY_MEASURE_WITH_UNIT (LENGTH_MEASURE( 1.000000000000000082E-05 ), #34, 'distance_accuracy_value', 'NONE');
#76 = CIRCLE ( 'NONE', #28, 3.199999999999999289 ) ;
#77 = COLOUR_RGB ( '',0.6470588235294117974, 0.6196078431372549211, 0.5882352941176470784 ) ;
#78 = EDGE_CURVE ( 'NONE', #30, #101, #7, .T. ) ;
#79 = ORIENTED_EDGE ( 'NONE', *, *, #36, .F. ) ;
#80 = ORIENTED_EDGE ( 'NONE', *, *, #149, .F. ) ;
#81 = VERTEX_POINT ( 'NONE', #172 ) ;
#82 = EDGE_LOOP ( 'NONE', ( #110, #46 ) ) ;
#83 = PRODUCT_DEFINITION_FORMATION_WITH_SPECIFIED_SOURCE ( 'ANY', '', #17, .NOT_KNOWN. ) ;
#84 = PLANE ( 'NONE',  #96 ) ;
#85 = CARTESIAN_POINT ( 'NONE',  ( 7.206746031746035897, 0.000000000000000000, 0.000000000000000000 ) ) ;
#86 = APPLICATION_PROTOCOL_DEFINITION ( 'draft international standard', 'automotive_design', 1998, #61 ) ;
#87 = CARTESIAN_POINT ( 'NONE',  ( 0.000000000000000000, 0.000000000000000000, 0.000000000000000000 ) ) ;
#88 = EDGE_CURVE ( 'NONE', #30, #16, #1, .T. ) ;
#89 = LINE ( 'NONE', #91, #177 ) ;
#90 = LINE ( 'NONE', #22, #197 ) ;
#91 = CARTESIAN_POINT ( 'NONE',  ( 7.206746031746035897, 0.000000000000000000, -3.199999999999999289 ) ) ;
#92 = CIRCLE ( 'NONE', #180, 5.099999999999998757 ) ;
#93 = ADVANCED_FACE ( 'NONE', ( #4 ), #184, .F. ) ;
#94 =( GEOMETRIC_REPRESENTATION_CONTEXT ( 3 ) GLOBAL_UNCERTAINTY_ASSIGNED_CONTEXT ( ( #21 ) ) GLOBAL_UNIT_ASSIGNED_CONTEXT ( ( #73, #143, #57 ) ) REPRESENTATION_CONTEXT ( 'NONE', 'WORKASPACE' ) );
#95 = AXIS2_PLACEMENT_3D ( 'NONE', #85, #47, #5 ) ;
#96 = AXIS2_PLACEMENT_3D ( 'NONE', #13, #137, #116 ) ;
#97 = DIRECTION ( 'NONE',  ( 1.000000000000000000, -0.000000000000000000, -0.000000000000000000 ) ) ;
#98 = CARTESIAN_POINT ( 'NONE',  ( 0.000000000000000000, 3.918869757271529474E-16, 3.199999999999999289 ) ) ;
#99 = ORIENTED_EDGE ( 'NONE', *, *, #146, .F. ) ;
#100 = DIRECTION ( 'NONE',  ( 1.000000000000000000, -0.000000000000000000, -0.000000000000000000 ) ) ;
#101 = VERTEX_POINT ( 'NONE', #3 ) ;
#102 = PRESENTATION_LAYER_ASSIGNMENT (  '', '', ( #10 ) ) ;
#103 = DIRECTION ( 'NONE',  ( 1.000000000000000000, -0.000000000000000000, -0.000000000000000000 ) ) ;
#104 = ORIENTED_EDGE ( 'NONE', *, *, #109, .T. ) ;
#105 = EDGE_CURVE ( 'NONE', #101, #30, #147, .T. ) ;
#106 = CIRCLE ( 'NONE', #125, 3.199999999999999289 ) ;
#107 = CARTESIAN_POINT ( 'NONE',  ( 0.000000000000000000, 0.000000000000000000, 0.000000000000000000 ) ) ;
#108 = DIRECTION ( 'NONE',  ( 1.000000000000000000, -0.000000000000000000, -0.000000000000000000 ) ) ;
#109 = EDGE_CURVE ( 'NONE', #81, #211, #187, .T. ) ;
#110 = ORIENTED_EDGE ( 'NONE', *, *, #105, .F. ) ;
#111 = ORIENTED_EDGE ( 'NONE', *, *, #59, .F. ) ;
#112 = ORIENTED_EDGE ( 'NONE', *, *, #56, .F. ) ;
#113 = ORIENTED_EDGE ( 'NONE', *, *, #205, .T. ) ;
#114 = ADVANCED_FACE ( 'NONE', ( #200, #29 ), #185, .T. ) ;
#115 = CARTESIAN_POINT ( 'NONE',  ( 7.206746031746035897, 6.245698675651499853E-16, 5.099999999999998757 ) ) ;
#116 = DIRECTION ( 'NONE',  ( -0.000000000000000000, 0.000000000000000000, -1.000000000000000000 ) ) ;
#117 = SHAPE_DEFINITION_REPRESENTATION ( #138, #127 ) ;
#118 = DIRECTION ( 'NONE',  ( 1.000000000000000000, -0.000000000000000000, -0.000000000000000000 ) ) ;
#119 = LINE ( 'NONE', #32, #64 ) ;
#120 = SURFACE_SIDE_STYLE ('',( #162 ) ) ;
#121 = CARTESIAN_POINT ( 'NONE',  ( -0.4499999999999999001, 0.000000000000000000, 0.000000000000000000 ) ) ;
#122 = DIRECTION ( 'NONE',  ( 1.000000000000000000, 0.000000000000000000, 0.000000000000000000 ) ) ;
#123 = FACE_OUTER_BOUND ( 'NONE', #168, .T. ) ;
#124 = DIRECTION ( 'NONE',  ( 1.000000000000000000, -0.000000000000000000, -0.000000000000000000 ) ) ;
#125 = AXIS2_PLACEMENT_3D ( 'NONE', #87, #100, #72 ) ;
#126 = DIRECTION ( 'NONE',  ( 1.000000000000000000, -0.000000000000000000, -0.000000000000000000 ) ) ;
#127 = ADVANCED_BREP_SHAPE_REPRESENTATION ( 'J00.405.006.000', ( #156, #193 ), #26 ) ;
#128 = COLOUR_RGB ( '',0.6470588235294117974, 0.6196078431372549211, 0.5882352941176470784 ) ;
#129 = VERTEX_POINT ( 'NONE', #207 ) ;
#130 = ADVANCED_FACE ( 'NONE', ( #58 ), #178, .T. ) ;
#131 = ORIENTED_EDGE ( 'NONE', *, *, #135, .T. ) ;
#132 = CARTESIAN_POINT ( 'NONE',  ( -0.4499999999999999001, 3.918869757271529474E-16, 3.199999999999999289 ) ) ;
#133 =( NAMED_UNIT ( * ) SI_UNIT ( $, .STERADIAN. ) SOLID_ANGLE_UNIT ( ) );
#134 = FACE_BOUND ( 'NONE', #198, .T. ) ;
#135 = EDGE_CURVE ( 'NONE', #16, #129, #92, .T. ) ;
#136 = DIRECTION ( 'NONE',  ( 0.000000000000000000, 0.000000000000000000, -1.000000000000000000 ) ) ;
#137 = DIRECTION ( 'NONE',  ( 1.000000000000000000, 0.000000000000000000, -0.000000000000000000 ) ) ;
#138 = PRODUCT_DEFINITION_SHAPE ( 'NONE', 'NONE',  #42 ) ;
#139 = ORIENTED_EDGE ( 'NONE', *, *, #135, .F. ) ;
#140 = DIRECTION ( 'NONE',  ( 0.000000000000000000, 0.000000000000000000, -1.000000000000000000 ) ) ;
#141 = DIRECTION ( 'NONE',  ( 0.000000000000000000, 0.000000000000000000, -1.000000000000000000 ) ) ;
#142 = ADVANCED_FACE ( 'NONE', ( #123 ), #179, .F. ) ;
#143 =( NAMED_UNIT ( * ) PLANE_ANGLE_UNIT ( ) SI_UNIT ( $, .RADIAN. ) );
#144 = CARTESIAN_POINT ( 'NONE',  ( 7.206746031746035897, 0.000000000000000000, 0.000000000000000000 ) ) ;
#145 = AXIS2_PLACEMENT_3D ( 'NONE', #158, #118, #20 ) ;
#146 = EDGE_CURVE ( 'NONE', #52, #81, #89, .T. ) ;
#147 = CIRCLE ( 'NONE', #208, 5.099999999999998757 ) ;
#148 = EDGE_LOOP ( 'NONE', ( #113, #12 ) ) ;
#149 = EDGE_CURVE ( 'NONE', #50, #211, #90, .T. ) ;
#150 = ORIENTED_EDGE ( 'NONE', *, *, #181, .F. ) ;
#151 = AXIS2_PLACEMENT_3D ( 'NONE', #203, #35, #175 ) ;
#152 = DIRECTION ( 'NONE',  ( 1.000000000000000000, -0.000000000000000000, -0.000000000000000000 ) ) ;
#153 = CARTESIAN_POINT ( 'NONE',  ( -0.4499999999999999001, 6.245698675651499853E-16, 5.099999999999998757 ) ) ;
#154 = CARTESIAN_POINT ( 'NONE',  ( -0.4499999999999999001, 0.000000000000000000, -3.199999999999999289 ) ) ;
#155 = MECHANICAL_DESIGN_GEOMETRIC_PRESENTATION_REPRESENTATION (  '', ( #10 ), #41 ) ;
#156 = MANIFOLD_SOLID_BREP ( 'Rotation1', #165 ) ;
#157 = CYLINDRICAL_SURFACE ( 'NONE', #95, 5.099999999999998757 ) ;
#158 = CARTESIAN_POINT ( 'NONE',  ( -0.4499999999999999001, 0.000000000000000000, 0.000000000000000000 ) ) ;
#159 = SURFACE_STYLE_USAGE ( .BOTH. , #120 ) ;
#160 = PRESENTATION_STYLE_ASSIGNMENT (( #8 ) ) ;
#161 = CIRCLE ( 'NONE', #191, 5.099999999999998757 ) ;
#162 = SURFACE_STYLE_FILL_AREA ( #196 ) ;
#163 = SURFACE_SIDE_STYLE ('',( #24 ) ) ;
#164 = FILL_AREA_STYLE ('',( #38 ) ) ;
#165 = CLOSED_SHELL ( 'NONE', ( #27, #93, #142, #114, #130, #25 ) ) ;
#166 = PRESENTATION_LAYER_ASSIGNMENT (  '', '', ( #212 ) ) ;
#167 = ORIENTED_EDGE ( 'NONE', *, *, #205, .F. ) ;
#168 = EDGE_LOOP ( 'NONE', ( #80, #167, #43, #104 ) ) ;
#169 = CIRCLE ( 'NONE', #209, 3.199999999999999289 ) ;
#170 = ORIENTED_EDGE ( 'NONE', *, *, #109, .F. ) ;
#171 =( NAMED_UNIT ( * ) SI_UNIT ( $, .STERADIAN. ) SOLID_ANGLE_UNIT ( ) );
#172 = CARTESIAN_POINT ( 'NONE',  ( 0.000000000000000000, 0.000000000000000000, -3.199999999999999289 ) ) ;
#173 = DIRECTION ( 'NONE',  ( 0.000000000000000000, 0.000000000000000000, -1.000000000000000000 ) ) ;
#174 = DIRECTION ( 'NONE',  ( 1.000000000000000000, -0.000000000000000000, -0.000000000000000000 ) ) ;
#175 = DIRECTION ( 'NONE',  ( 0.000000000000000000, 0.000000000000000000, -1.000000000000000000 ) ) ;
#176 = DIRECTION ( 'NONE',  ( 0.000000000000000000, 0.000000000000000000, 1.000000000000000000 ) ) ;
#177 = VECTOR ( 'NONE', #126, 1000.000000000000000 ) ;
#178 = CYLINDRICAL_SURFACE ( 'NONE', #2, 5.099999999999998757 ) ;
#179 = CYLINDRICAL_SURFACE ( 'NONE', #204, 3.199999999999999289 ) ;
#180 = AXIS2_PLACEMENT_3D ( 'NONE', #107, #74, #190 ) ;
#181 = EDGE_CURVE ( 'NONE', #211, #81, #106, .T. ) ;
#182 = ORIENTED_EDGE ( 'NONE', *, *, #36, .T. ) ;
#183 = DIRECTION ( 'NONE',  ( 1.000000000000000000, -0.000000000000000000, -0.000000000000000000 ) ) ;
#184 = CYLINDRICAL_SURFACE ( 'NONE', #151, 3.199999999999999289 ) ;
#185 = PLANE ( 'NONE',  #45 ) ;
#186 = DIRECTION ( 'NONE',  ( 0.000000000000000000, 0.000000000000000000, -1.000000000000000000 ) ) ;
#187 = CIRCLE ( 'NONE', #48, 3.199999999999999289 ) ;
#188 = DIRECTION ( 'NONE',  ( 0.000000000000000000, 0.000000000000000000, -1.000000000000000000 ) ) ;
#189 = APPLICATION_PROTOCOL_DEFINITION ( 'draft international standard', 'automotive_design', 1998, #33 ) ;
#190 = DIRECTION ( 'NONE',  ( 0.000000000000000000, 0.000000000000000000, -1.000000000000000000 ) ) ;
#191 = AXIS2_PLACEMENT_3D ( 'NONE', #71, #174, #173 ) ;
#192 = UNCERTAINTY_MEASURE_WITH_UNIT (LENGTH_MEASURE( 1.000000000000000082E-05 ), #37, 'distance_accuracy_value', 'NONE');
#193 = AXIS2_PLACEMENT_3D ( 'NONE', #68, #19, #122 ) ;
#194 = ORIENTED_EDGE ( 'NONE', *, *, #88, .T. ) ;
#195 = CARTESIAN_POINT ( 'NONE',  ( 0.000000000000000000, 6.245698675651499853E-16, 5.099999999999998757 ) ) ;
#196 = FILL_AREA_STYLE ('',( #14 ) ) ;
#197 = VECTOR ( 'NONE', #108, 1000.000000000000000 ) ;
#198 = EDGE_LOOP ( 'NONE', ( #170, #150 ) ) ;
#199 = PRODUCT_CONTEXT ( 'NONE', #33, 'mechanical' ) ;
#200 = FACE_BOUND ( 'NONE', #148, .T. ) ;
#201 = CARTESIAN_POINT ( 'NONE',  ( -0.4500000000000001221, 5.099999999999998757, 0.000000000000000000 ) ) ;
#202 =( NAMED_UNIT ( * ) PLANE_ANGLE_UNIT ( ) SI_UNIT ( $, .RADIAN. ) );
#203 = CARTESIAN_POINT ( 'NONE',  ( 7.206746031746035897, 0.000000000000000000, 0.000000000000000000 ) ) ;
#204 = AXIS2_PLACEMENT_3D ( 'NONE', #60, #124, #23 ) ;
#205 = EDGE_CURVE ( 'NONE', #52, #50, #76, .T. ) ;
#206 = DIRECTION ( 'NONE',  ( -1.000000000000000000, 0.000000000000000000, 0.000000000000000000 ) ) ;
#207 = CARTESIAN_POINT ( 'NONE',  ( 0.000000000000000000, 0.000000000000000000, -5.099999999999998757 ) ) ;
#208 = AXIS2_PLACEMENT_3D ( 'NONE', #70, #69, #186 ) ;
#209 = AXIS2_PLACEMENT_3D ( 'NONE', #121, #103, #188 ) ;
#210 = EDGE_LOOP ( 'NONE', ( #63, #194, #111, #79 ) ) ;
#211 = VERTEX_POINT ( 'NONE', #98 ) ;
#212 = STYLED_ITEM ( 'NONE', ( #160 ), #156 ) ;
#213 = ORIENTED_EDGE ( 'NONE', *, *, #59, .T. ) ;
#214 = FACE_OUTER_BOUND ( 'NONE', #11, .T. ) ;
ENDSEC;
END-ISO-10303-21;
