ISO-10303-21;
HEADER;
FILE_DESCRIPTION (( 'STEP AP214' ),
    '1' );
FILE_NAME ('J00.405.008.000.STEP',
    '2024-06-19T12:05:14',
    ( '' ),
    ( '' ),
    'SwSTEP 2.0',
    'SolidWorks 2022',
    '' );
FILE_SCHEMA (( 'AUTOMOTIVE_DESIGN' ));
ENDSEC;

DATA;
#1 = SHAPE_DEFINITION_REPRESENTATION ( #60, #19 ) ;
#2 = ORIENTED_EDGE ( 'NONE', *, *, #18, .F. ) ;
#3 = ORIENTED_EDGE ( 'NONE', *, *, #122, .F. ) ;
#4 = STYLED_ITEM ( 'NONE', ( #39 ), #160 ) ;
#5 = ORIENTED_EDGE ( 'NONE', *, *, #187, .F. ) ;
#6 = EDGE_LOOP ( 'NONE', ( #17, #69, #51, #84 ) ) ;
#7 = CARTESIAN_POINT ( 'NONE',  ( 7.206746031746037673, -4.915906968647666395E-15, 6.999999999999988454 ) ) ;
#8 = CIRCLE ( 'NONE', #207, 7.000000000000002665 ) ;
#9 = CYLINDRICAL_SURFACE ( 'NONE', #104, 4.200000000000001954 ) ;
#10 = CARTESIAN_POINT ( 'NONE',  ( -0.5499999999999949374, 1.040834085586084257E-14, 1.387778780781445676E-14 ) ) ;
#11 = SURFACE_STYLE_FILL_AREA ( #123 ) ;
#12 = SURFACE_STYLE_USAGE ( .BOTH. , #54 ) ;
#13 = AXIS2_PLACEMENT_3D ( 'NONE', #61, #91, #125 ) ;
#14 = DIRECTION ( 'NONE',  ( 1.000000000000000000, 0.000000000000000000, 0.000000000000000000 ) ) ;
#15 =( GEOMETRIC_REPRESENTATION_CONTEXT ( 3 ) GLOBAL_UNCERTAINTY_ASSIGNED_CONTEXT ( ( #30 ) ) GLOBAL_UNIT_ASSIGNED_CONTEXT ( ( #106, #42, #193 ) ) REPRESENTATION_CONTEXT ( 'NONE', 'WORKASPACE' ) );
#16 = EDGE_LOOP ( 'NONE', ( #169, #101 ) ) ;
#17 = ORIENTED_EDGE ( 'NONE', *, *, #18, .T. ) ;
#18 = EDGE_CURVE ( 'NONE', #204, #165, #203, .T. ) ;
#19 = ADVANCED_BREP_SHAPE_REPRESENTATION ( 'J00.405.008.000', ( #160, #210 ), #151 ) ;
#20 = APPLICATION_PROTOCOL_DEFINITION ( 'draft international standard', 'automotive_design', 1998, #78 ) ;
#21 = LINE ( 'NONE', #7, #191 ) ;
#22 = ADVANCED_FACE ( 'NONE', ( #185, #67 ), #66, .T. ) ;
#23 = DIRECTION ( 'NONE',  ( -2.065146995210483709E-16, -1.665334536937734071E-16, -1.000000000000000000 ) ) ;
#24 = AXIS2_PLACEMENT_3D ( 'NONE', #10, #119, #41 ) ;
#25 = LINE ( 'NONE', #155, #94 ) ;
#26 = CARTESIAN_POINT ( 'NONE',  ( 0.000000000000000000, 0.000000000000000000, 0.000000000000000000 ) ) ;
#27 = DIRECTION ( 'NONE',  ( 1.000000000000000000, -4.259385939352627576E-17, -1.112428321272187978E-17 ) ) ;
#28 = DIRECTION ( 'NONE',  ( 1.000000000000000000, -4.259385939352627576E-17, -1.112428321272187978E-17 ) ) ;
#29 = FACE_OUTER_BOUND ( 'NONE', #35, .T. ) ;
#30 = UNCERTAINTY_MEASURE_WITH_UNIT (LENGTH_MEASURE( 1.000000000000000082E-05 ), #106, 'distance_accuracy_value', 'NONE');
#31 = VERTEX_POINT ( 'NONE', #176 ) ;
#32 = VERTEX_POINT ( 'NONE', #73 ) ;
#33 = EDGE_CURVE ( 'NONE', #165, #149, #21, .T. ) ;
#34 = ORIENTED_EDGE ( 'NONE', *, *, #81, .T. ) ;
#35 = EDGE_LOOP ( 'NONE', ( #65, #130, #83, #113 ) ) ;
#36 = AXIS2_PLACEMENT_3D ( 'NONE', #158, #27, #55 ) ;
#37 = ORIENTED_EDGE ( 'NONE', *, *, #52, .F. ) ;
#38 = DIRECTION ( 'NONE',  ( 1.000000000000000000, -4.259385939352627576E-17, -1.112428321272187978E-17 ) ) ;
#39 = PRESENTATION_STYLE_ASSIGNMENT (( #12 ) ) ;
#40 = COLOUR_RGB ( '',0.7529411764705882248, 0.7529411764705882248, 0.7529411764705882248 ) ;
#41 = DIRECTION ( 'NONE',  ( -2.065146995210484202E-16, -1.665334536937734318E-16, -1.000000000000000000 ) ) ;
#42 =( NAMED_UNIT ( * ) PLANE_ANGLE_UNIT ( ) SI_UNIT ( $, .RADIAN. ) );
#43 = PRODUCT ( 'J00.405.008.000', 'J00.405.008.000', '', ( #111 ) ) ;
#44 = CARTESIAN_POINT ( 'NONE',  ( 7.206746031746035897, -7.638334409421076683E-15, -4.200000000000016165 ) ) ;
#45 = DIRECTION ( 'NONE',  ( 1.000000000000000000, -4.259385939352627576E-17, -1.112428321272187978E-17 ) ) ;
#46 = CIRCLE ( 'NONE', #24, 4.200000000000001066 ) ;
#47 = PRODUCT_RELATED_PRODUCT_CATEGORY ( 'part', '', ( #43 ) ) ;
#48 = ORIENTED_EDGE ( 'NONE', *, *, #129, .T. ) ;
#49 = CARTESIAN_POINT ( 'NONE',  ( -0.5500000000000018208, 7.000000000000004441, 0.000000000000000000 ) ) ;
#50 = DIRECTION ( 'NONE',  ( -1.000000000000000000, 4.259385939352631274E-17, 1.960049020799458264E-16 ) ) ;
#51 = ORIENTED_EDGE ( 'NONE', *, *, #199, .F. ) ;
#52 = EDGE_CURVE ( 'NONE', #31, #202, #46, .T. ) ;
#53 = DIRECTION ( 'NONE',  ( 1.000000000000000000, -4.259385939352627576E-17, -1.112428321272187978E-17 ) ) ;
#54 = SURFACE_SIDE_STYLE ('',( #11 ) ) ;
#55 = DIRECTION ( 'NONE',  ( -2.013518320330221746E-16, -1.665334536937733332E-16, -1.000000000000000000 ) ) ;
#56 = CYLINDRICAL_SURFACE ( 'NONE', #159, 7.000000000000002665 ) ;
#57 = CARTESIAN_POINT ( 'NONE',  ( -1.372034314559621302E-15, -1.165734175856414170E-15, -7.000000000000002665 ) ) ;
#58 = CARTESIAN_POINT ( 'NONE',  ( 7.206746031746035897, -6.938893903907228378E-15, -1.387778780781445676E-14 ) ) ;
#59 = PRESENTATION_LAYER_ASSIGNMENT (  '', '', ( #154 ) ) ;
#60 = PRODUCT_DEFINITION_SHAPE ( 'NONE', 'NONE',  #157 ) ;
#61 = CARTESIAN_POINT ( 'NONE',  ( 7.206746031746035897, -6.938893903907228378E-15, -1.387778780781445676E-14 ) ) ;
#62 = UNCERTAINTY_MEASURE_WITH_UNIT (LENGTH_MEASURE( 1.000000000000000082E-05 ), #142, 'distance_accuracy_value', 'NONE');
#63 = FILL_AREA_STYLE_COLOUR ( '', #100 ) ;
#64 = LINE ( 'NONE', #44, #163 ) ;
#65 = ORIENTED_EDGE ( 'NONE', *, *, #33, .F. ) ;
#66 = PLANE ( 'NONE',  #127 ) ;
#67 = FACE_OUTER_BOUND ( 'NONE', #133, .T. ) ;
#68 = CIRCLE ( 'NONE', #214, 4.200000000000001954 ) ;
#69 = ORIENTED_EDGE ( 'NONE', *, *, #33, .T. ) ;
#70 = EDGE_LOOP ( 'NONE', ( #135, #186, #34, #5 ) ) ;
#71 = LINE ( 'NONE', #189, #196 ) ;
#72 = DIRECTION ( 'NONE',  ( 1.000000000000000000, -4.259385939352627576E-17, -1.112428321272187978E-17 ) ) ;
#73 = CARTESIAN_POINT ( 'NONE',  ( 4.672198949343247993E-17, -5.406425304257242326E-15, 4.200000000000000178 ) ) ;
#74 = FACE_OUTER_BOUND ( 'NONE', #16, .T. ) ;
#75 = SURFACE_STYLE_FILL_AREA ( #212 ) ;
#76 = CIRCLE ( 'NONE', #36, 7.000000000000002665 ) ;
#77 = APPLICATION_PROTOCOL_DEFINITION ( 'draft international standard', 'automotive_design', 1998, #99 ) ;
#78 = APPLICATION_CONTEXT ( 'automotive_design' ) ;
#79 = FACE_BOUND ( 'NONE', #114, .T. ) ;
#80 = CARTESIAN_POINT ( 'NONE',  ( -0.5499999999999949374, 1.040834085586084257E-14, 1.387778780781445676E-14 ) ) ;
#81 = EDGE_CURVE ( 'NONE', #32, #152, #143, .T. ) ;
#82 = ORIENTED_EDGE ( 'NONE', *, *, #187, .T. ) ;
#83 = ORIENTED_EDGE ( 'NONE', *, *, #92, .T. ) ;
#84 = ORIENTED_EDGE ( 'NONE', *, *, #92, .F. ) ;
#85 = PRODUCT_DEFINITION_FORMATION_WITH_SPECIFIED_SOURCE ( 'ANY', '', #43, .NOT_KNOWN. ) ;
#86 = EDGE_CURVE ( 'NONE', #165, #204, #76, .T. ) ;
#87 = CARTESIAN_POINT ( 'NONE',  ( 7.786998248905429550E-17, -4.597230530153409644E-15, 7.000000000000000000 ) ) ;
#88 = FACE_OUTER_BOUND ( 'NONE', #6, .T. ) ;
#89 = CARTESIAN_POINT ( 'NONE',  ( 7.206746031746035897, -6.938893903907228378E-15, -1.387778780781445676E-14 ) ) ;
#90 = CLOSED_SHELL ( 'NONE', ( #141, #166, #134, #181, #171, #22 ) ) ;
#91 = DIRECTION ( 'NONE',  ( 1.000000000000000000, -4.259385939352627576E-17, -1.112428321272187978E-17 ) ) ;
#92 = EDGE_CURVE ( 'NONE', #204, #131, #71, .T. ) ;
#93 = DIRECTION ( 'NONE',  ( 1.000000000000000000, -4.259385939352631274E-17, -1.960049020799458264E-16 ) ) ;
#94 = VECTOR ( 'NONE', #53, 1000.000000000000000 ) ;
#95 = CARTESIAN_POINT ( 'NONE',  ( 0.000000000000000000, 0.000000000000000000, 0.000000000000000000 ) ) ;
#96 = PRESENTATION_STYLE_ASSIGNMENT (( #144 ) ) ;
#97 = ORIENTED_EDGE ( 'NONE', *, *, #52, .T. ) ;
#98 = DIRECTION ( 'NONE',  ( -2.013518320330221746E-16, -1.665334536937733332E-16, -1.000000000000000000 ) ) ;
#99 = APPLICATION_CONTEXT ( 'automotive_design' ) ;
#100 = COLOUR_RGB ( '',0.7529411764705882248, 0.7529411764705882248, 0.7529411764705882248 ) ;
#101 = ORIENTED_EDGE ( 'NONE', *, *, #117, .T. ) ;
#102 = DIRECTION ( 'NONE',  ( 1.000000000000000000, -4.259385939352627576E-17, -1.112428321272187978E-17 ) ) ;
#103 = EDGE_CURVE ( 'NONE', #152, #32, #68, .T. ) ;
#104 = AXIS2_PLACEMENT_3D ( 'NONE', #58, #124, #182 ) ;
#105 = DIRECTION ( 'NONE',  ( -1.960049020799458510E-16, -1.665334536937734318E-16, -1.000000000000000000 ) ) ;
#106 =( LENGTH_UNIT ( ) NAMED_UNIT ( * ) SI_UNIT ( .MILLI., .METRE. ) );
#107 = CARTESIAN_POINT ( 'NONE',  ( 0.000000000000000000, 0.000000000000000000, 0.000000000000000000 ) ) ;
#108 = DIRECTION ( 'NONE',  ( -1.960049020799458264E-16, -1.665334536937733825E-16, -1.000000000000000000 ) ) ;
#109 = AXIS2_PLACEMENT_3D ( 'NONE', #209, #190, #153 ) ;
#110 = EDGE_LOOP ( 'NONE', ( #97, #48 ) ) ;
#111 = PRODUCT_CONTEXT ( 'NONE', #99, 'mechanical' ) ;
#112 = DIRECTION ( 'NONE',  ( 1.960049020799458264E-16, 1.665334536937734071E-16, 1.000000000000000000 ) ) ;
#113 = ORIENTED_EDGE ( 'NONE', *, *, #117, .F. ) ;
#114 = EDGE_LOOP ( 'NONE', ( #170, #188 ) ) ;
#115 = PRESENTATION_LAYER_ASSIGNMENT (  '', '', ( #4 ) ) ;
#116 = FACE_OUTER_BOUND ( 'NONE', #183, .T. ) ;
#117 = EDGE_CURVE ( 'NONE', #149, #131, #8, .T. ) ;
#118 = FACE_OUTER_BOUND ( 'NONE', #70, .T. ) ;
#119 = DIRECTION ( 'NONE',  ( 1.000000000000000000, -4.259385939352627576E-17, -1.112428321272187978E-17 ) ) ;
#120 = CIRCLE ( 'NONE', #177, 7.000000000000002665 ) ;
#121 = CARTESIAN_POINT ( 'NONE',  ( 7.206746031746035897, -6.938893903907228378E-15, -1.387778780781445676E-14 ) ) ;
#122 = EDGE_CURVE ( 'NONE', #202, #32, #25, .T. ) ;
#123 = FILL_AREA_STYLE ('',( #192 ) ) ;
#124 = DIRECTION ( 'NONE',  ( 1.000000000000000000, -4.259385939352627576E-17, -1.112428321272187978E-17 ) ) ;
#125 = DIRECTION ( 'NONE',  ( -2.478176394252580648E-16, -1.665334536937733332E-16, -1.000000000000000000 ) ) ;
#126 = CARTESIAN_POINT ( 'NONE',  ( 6.938893903907228378E-15, 4.200000000000001954, 1.387778780781445676E-14 ) ) ;
#127 = AXIS2_PLACEMENT_3D ( 'NONE', #49, #50, #112 ) ;
#128 = CARTESIAN_POINT ( 'NONE',  ( -0.5499999999999949374, -5.406425304257322790E-15, 4.200000000000013500 ) ) ;
#129 = EDGE_CURVE ( 'NONE', #202, #31, #180, .T. ) ;
#130 = ORIENTED_EDGE ( 'NONE', *, *, #86, .T. ) ;
#131 = VERTEX_POINT ( 'NONE', #57 ) ;
#132 = AXIS2_PLACEMENT_3D ( 'NONE', #80, #148, #98 ) ;
#133 = EDGE_LOOP ( 'NONE', ( #2, #167 ) ) ;
#134 = ADVANCED_FACE ( 'NONE', ( #116 ), #173, .F. ) ;
#135 = ORIENTED_EDGE ( 'NONE', *, *, #129, .F. ) ;
#136 = ORIENTED_EDGE ( 'NONE', *, *, #103, .T. ) ;
#137 = CARTESIAN_POINT ( 'NONE',  ( 0.000000000000000000, 0.000000000000000000, 0.000000000000000000 ) ) ;
#138 = DIRECTION ( 'NONE',  ( 1.000000000000000000, -4.259385939352627576E-17, -1.112428321272187978E-17 ) ) ;
#139 = DIRECTION ( 'NONE',  ( -1.960049020799458510E-16, -1.665334536937734318E-16, -1.000000000000000000 ) ) ;
#140 = CARTESIAN_POINT ( 'NONE',  ( -8.232205887357729786E-16, -6.994405055138486994E-16, -4.200000000000001954 ) ) ;
#141 = ADVANCED_FACE ( 'NONE', ( #88 ), #56, .T. ) ;
#142 =( LENGTH_UNIT ( ) NAMED_UNIT ( * ) SI_UNIT ( .MILLI., .METRE. ) );
#143 = CIRCLE ( 'NONE', #168, 4.200000000000001954 ) ;
#144 = SURFACE_STYLE_USAGE ( .BOTH. , #145 ) ;
#145 = SURFACE_SIDE_STYLE ('',( #75 ) ) ;
#146 = PLANE ( 'NONE',  #200 ) ;
#147 = AXIS2_PLACEMENT_3D ( 'NONE', #121, #138, #23 ) ;
#148 = DIRECTION ( 'NONE',  ( 1.000000000000000000, -4.259385939352627576E-17, -1.112428321272187978E-17 ) ) ;
#149 = VERTEX_POINT ( 'NONE', #87 ) ;
#150 = MECHANICAL_DESIGN_GEOMETRIC_PRESENTATION_REPRESENTATION (  '', ( #4 ), #15 ) ;
#151 =( GEOMETRIC_REPRESENTATION_CONTEXT ( 3 ) GLOBAL_UNCERTAINTY_ASSIGNED_CONTEXT ( ( #198 ) ) GLOBAL_UNIT_ASSIGNED_CONTEXT ( ( #162, #161, #178 ) ) REPRESENTATION_CONTEXT ( 'NONE', 'WORKASPACE' ) );
#152 = VERTEX_POINT ( 'NONE', #140 ) ;
#153 = DIRECTION ( 'NONE',  ( -2.065146995210484202E-16, -1.665334536937734318E-16, -1.000000000000000000 ) ) ;
#154 = STYLED_ITEM ( 'NONE', ( #96 ), #19 ) ;
#155 = CARTESIAN_POINT ( 'NONE',  ( 7.206746031746036785, -5.725101742751490399E-15, 4.199999999999988631 ) ) ;
#156 = DIRECTION ( 'NONE',  ( -2.478176394252580648E-16, -1.665334536937733332E-16, -1.000000000000000000 ) ) ;
#157 = PRODUCT_DEFINITION ( 'UNKNOWN', '', #85, #195 ) ;
#158 = CARTESIAN_POINT ( 'NONE',  ( -0.5499999999999949374, 1.040834085586084257E-14, 1.387778780781445676E-14 ) ) ;
#159 = AXIS2_PLACEMENT_3D ( 'NONE', #89, #38, #156 ) ;
#160 = MANIFOLD_SOLID_BREP ( 'Rotation1', #90 ) ;
#161 =( NAMED_UNIT ( * ) PLANE_ANGLE_UNIT ( ) SI_UNIT ( $, .RADIAN. ) );
#162 =( LENGTH_UNIT ( ) NAMED_UNIT ( * ) SI_UNIT ( .MILLI., .METRE. ) );
#163 = VECTOR ( 'NONE', #45, 1000.000000000000000 ) ;
#164 = DIRECTION ( 'NONE',  ( 0.000000000000000000, 0.000000000000000000, 1.000000000000000000 ) ) ;
#165 = VERTEX_POINT ( 'NONE', #206 ) ;
#166 = ADVANCED_FACE ( 'NONE', ( #118 ), #9, .F. ) ;
#167 = ORIENTED_EDGE ( 'NONE', *, *, #86, .F. ) ;
#168 = AXIS2_PLACEMENT_3D ( 'NONE', #107, #72, #139 ) ;
#169 = ORIENTED_EDGE ( 'NONE', *, *, #199, .T. ) ;
#170 = ORIENTED_EDGE ( 'NONE', *, *, #103, .F. ) ;
#171 = ADVANCED_FACE ( 'NONE', ( #29 ), #194, .T. ) ;
#172 = DIRECTION ( 'NONE',  ( 1.000000000000000000, -4.259385939352627576E-17, -1.112428321272187978E-17 ) ) ;
#173 = CYLINDRICAL_SURFACE ( 'NONE', #147, 4.200000000000001954 ) ;
#174 = MECHANICAL_DESIGN_GEOMETRIC_PRESENTATION_REPRESENTATION (  '', ( #154 ), #184 ) ;
#175 = DIRECTION ( 'NONE',  ( 1.000000000000000000, -4.259385939352627576E-17, -1.112428321272187978E-17 ) ) ;
#176 = CARTESIAN_POINT ( 'NONE',  ( -0.5499999999999958256, 9.708900350346994262E-15, -4.199999999999987743 ) ) ;
#177 = AXIS2_PLACEMENT_3D ( 'NONE', #197, #28, #108 ) ;
#178 =( NAMED_UNIT ( * ) SI_UNIT ( $, .STERADIAN. ) SOLID_ANGLE_UNIT ( ) );
#179 =( NAMED_UNIT ( * ) SI_UNIT ( $, .STERADIAN. ) SOLID_ANGLE_UNIT ( ) );
#180 = CIRCLE ( 'NONE', #109, 4.200000000000001066 ) ;
#181 = ADVANCED_FACE ( 'NONE', ( #74, #79 ), #146, .T. ) ;
#182 = DIRECTION ( 'NONE',  ( -2.065146995210483709E-16, -1.665334536937734071E-16, -1.000000000000000000 ) ) ;
#183 = EDGE_LOOP ( 'NONE', ( #3, #37, #82, #136 ) ) ;
#184 =( GEOMETRIC_REPRESENTATION_CONTEXT ( 3 ) GLOBAL_UNCERTAINTY_ASSIGNED_CONTEXT ( ( #62 ) ) GLOBAL_UNIT_ASSIGNED_CONTEXT ( ( #142, #211, #179 ) ) REPRESENTATION_CONTEXT ( 'NONE', 'WORKASPACE' ) );
#185 = FACE_BOUND ( 'NONE', #110, .T. ) ;
#186 = ORIENTED_EDGE ( 'NONE', *, *, #122, .T. ) ;
#187 = EDGE_CURVE ( 'NONE', #31, #152, #64, .T. ) ;
#188 = ORIENTED_EDGE ( 'NONE', *, *, #81, .F. ) ;
#189 = CARTESIAN_POINT ( 'NONE',  ( 7.206746031746035008, -8.104628079763642745E-15, -7.000000000000016875 ) ) ;
#190 = DIRECTION ( 'NONE',  ( 1.000000000000000000, -4.259385939352627576E-17, -1.112428321272187978E-17 ) ) ;
#191 = VECTOR ( 'NONE', #102, 1000.000000000000000 ) ;
#192 = FILL_AREA_STYLE_COLOUR ( '', #40 ) ;
#193 =( NAMED_UNIT ( * ) SI_UNIT ( $, .STERADIAN. ) SOLID_ANGLE_UNIT ( ) );
#194 = CYLINDRICAL_SURFACE ( 'NONE', #13, 7.000000000000002665 ) ;
#195 = PRODUCT_DEFINITION_CONTEXT ( 'detailed design', #78, 'design' ) ;
#196 = VECTOR ( 'NONE', #175, 1000.000000000000000 ) ;
#197 = CARTESIAN_POINT ( 'NONE',  ( 0.000000000000000000, 0.000000000000000000, 0.000000000000000000 ) ) ;
#198 = UNCERTAINTY_MEASURE_WITH_UNIT (LENGTH_MEASURE( 1.000000000000000082E-05 ), #162, 'distance_accuracy_value', 'NONE');
#199 = EDGE_CURVE ( 'NONE', #131, #149, #120, .T. ) ;
#200 = AXIS2_PLACEMENT_3D ( 'NONE', #126, #93, #213 ) ;
#201 = CARTESIAN_POINT ( 'NONE',  ( -0.5499999999999963807, 9.242606680004428199E-15, -6.999999999999988454 ) ) ;
#202 = VERTEX_POINT ( 'NONE', #128 ) ;
#203 = CIRCLE ( 'NONE', #132, 7.000000000000002665 ) ;
#204 = VERTEX_POINT ( 'NONE', #201 ) ;
#205 = DIRECTION ( 'NONE',  ( -1.960049020799458264E-16, -1.665334536937733825E-16, -1.000000000000000000 ) ) ;
#206 = CARTESIAN_POINT ( 'NONE',  ( -0.5499999999999948264, -4.597230530153453032E-15, 7.000000000000014211 ) ) ;
#207 = AXIS2_PLACEMENT_3D ( 'NONE', #137, #208, #205 ) ;
#208 = DIRECTION ( 'NONE',  ( 1.000000000000000000, -4.259385939352627576E-17, -1.112428321272187978E-17 ) ) ;
#209 = CARTESIAN_POINT ( 'NONE',  ( -0.5499999999999949374, 1.040834085586084257E-14, 1.387778780781445676E-14 ) ) ;
#210 = AXIS2_PLACEMENT_3D ( 'NONE', #95, #164, #14 ) ;
#211 =( NAMED_UNIT ( * ) PLANE_ANGLE_UNIT ( ) SI_UNIT ( $, .RADIAN. ) );
#212 = FILL_AREA_STYLE ('',( #63 ) ) ;
#213 = DIRECTION ( 'NONE',  ( -1.960049020799458264E-16, -1.665334536937734071E-16, -1.000000000000000000 ) ) ;
#214 = AXIS2_PLACEMENT_3D ( 'NONE', #26, #172, #105 ) ;
ENDSEC;
END-ISO-10303-21;
