ISO-10303-21;
HEADER;
FILE_DESCRIPTION (( 'STEP AP214' ),
    '1' );
FILE_NAME ('J00.405.010.000.STEP',
    '2024-06-19T10:26:25',
    ( '' ),
    ( '' ),
    'SwSTEP 2.0',
    'SolidWorks 2022',
    '' );
FILE_SCHEMA (( 'AUTOMOTIVE_DESIGN' ));
ENDSEC;

DATA;
#1 = ORIENTED_EDGE ( 'NONE', *, *, #120, .T. ) ;
#2 = CARTESIAN_POINT ( 'NONE',  ( 7.206746031746039449, 1.387778780781445676E-14, -1.734723475976807094E-15 ) ) ;
#3 = DIRECTION ( 'NONE',  ( -1.000000000000000000, 4.116626217457493946E-17, -5.775242064348982448E-17 ) ) ;
#4 = MECHANICAL_DESIGN_GEOMETRIC_PRESENTATION_REPRESENTATION (  '', ( #117 ), #200 ) ;
#5 = CARTESIAN_POINT ( 'NONE',  ( -0.6999999999999990674, 1.483181036569635260E-14, 5.249999999999995559 ) ) ;
#6 = DIRECTION ( 'NONE',  ( 1.000000000000000000, -4.116626217457494562E-17, -3.702524192079764128E-17 ) ) ;
#7 = CIRCLE ( 'NONE', #23, 5.249999999999998224 ) ;
#8 = ORIENTED_EDGE ( 'NONE', *, *, #158, .F. ) ;
#9 = ORIENTED_EDGE ( 'NONE', *, *, #158, .T. ) ;
#10 = VECTOR ( 'NONE', #157, 1000.000000000000000 ) ;
#11 = VERTEX_POINT ( 'NONE', #15 ) ;
#12 = FACE_OUTER_BOUND ( 'NONE', #174, .T. ) ;
#13 = MANIFOLD_SOLID_BREP ( 'Rotation1', #198 ) ;
#14 = DIRECTION ( 'NONE',  ( 1.020425574104004615E-16, 0.000000000000000000, -1.000000000000000000 ) ) ;
#15 = CARTESIAN_POINT ( 'NONE',  ( -0.6999999999999989564, 1.387778780781445676E-14, -5.250000000000001776 ) ) ;
#16 = SURFACE_STYLE_FILL_AREA ( #31 ) ;
#17 = CARTESIAN_POINT ( 'NONE',  ( -0.6999999999999992895, 1.387778780781445676E-14, -3.469446951953614189E-15 ) ) ;
#18 = AXIS2_PLACEMENT_3D ( 'NONE', #46, #3, #149 ) ;
#19 = CARTESIAN_POINT ( 'NONE',  ( -0.7000000000000061728, 1.387778780781445676E-14, 0.000000000000000000 ) ) ;
#20 = PRODUCT_DEFINITION ( 'UNKNOWN', '', #179, #185 ) ;
#21 = DIRECTION ( 'NONE',  ( 6.195440985631456550E-17, 0.000000000000000000, -1.000000000000000000 ) ) ;
#22 = ADVANCED_FACE ( 'NONE', ( #58 ), #43, .T. ) ;
#23 = AXIS2_PLACEMENT_3D ( 'NONE', #144, #159, #143 ) ;
#24 =( NAMED_UNIT ( * ) SI_UNIT ( $, .STERADIAN. ) SOLID_ANGLE_UNIT ( ) );
#25 = EDGE_CURVE ( 'NONE', #102, #123, #175, .T. ) ;
#26 = FILL_AREA_STYLE_COLOUR ( '', #140 ) ;
#27 = PRESENTATION_STYLE_ASSIGNMENT (( #194 ) ) ;
#28 =( NAMED_UNIT ( * ) SI_UNIT ( $, .STERADIAN. ) SOLID_ANGLE_UNIT ( ) );
#29 = DIRECTION ( 'NONE',  ( 5.775242064348982448E-17, 0.000000000000000000, -1.000000000000000000 ) ) ;
#30 = CARTESIAN_POINT ( 'NONE',  ( 1.943825200841881775E-16, 1.483181036569635892E-14, 5.249999999999999112 ) ) ;
#31 = FILL_AREA_STYLE ('',( #122 ) ) ;
#32 = DIRECTION ( 'NONE',  ( 1.000000000000000000, -4.116626217457494562E-17, -3.702524192079764128E-17 ) ) ;
#33 = DIRECTION ( 'NONE',  ( 6.377659838150028693E-17, 0.000000000000000000, -1.000000000000000000 ) ) ;
#34 = CIRCLE ( 'NONE', #156, 5.249999999999998224 ) ;
#35 = AXIS2_PLACEMENT_3D ( 'NONE', #2, #165, #114 ) ;
#36 = ORIENTED_EDGE ( 'NONE', *, *, #83, .T. ) ;
#37 = APPLICATION_CONTEXT ( 'automotive_design' ) ;
#38 = DIRECTION ( 'NONE',  ( 1.000000000000000000, -4.116626217457494562E-17, -3.702524192079764128E-17 ) ) ;
#39 = LINE ( 'NONE', #108, #10 ) ;
#40 = CYLINDRICAL_SURFACE ( 'NONE', #184, 5.249999999999998224 ) ;
#41 = CARTESIAN_POINT ( 'NONE',  ( 7.206746031746039449, 1.387778780781445676E-14, -1.734723475976807094E-15 ) ) ;
#42 = ADVANCED_FACE ( 'NONE', ( #193 ), #40, .F. ) ;
#43 = CYLINDRICAL_SURFACE ( 'NONE', #104, 8.499999999999996447 ) ;
#44 = DIRECTION ( 'NONE',  ( 1.000000000000000000, -4.116626217457494562E-17, -3.702524192079764128E-17 ) ) ;
#45 = DIRECTION ( 'NONE',  ( 1.000000000000000000, -4.116626217457494562E-17, -3.702524192079764128E-17 ) ) ;
#46 = CARTESIAN_POINT ( 'NONE',  ( -0.6999999999999992895, 8.499999999999992895, 0.000000000000000000 ) ) ;
#47 = AXIS2_PLACEMENT_3D ( 'NONE', #112, #49, #80 ) ;
#48 = FACE_OUTER_BOUND ( 'NONE', #155, .T. ) ;
#49 = DIRECTION ( 'NONE',  ( 1.000000000000000000, -4.116626217457494562E-17, -3.702524192079764128E-17 ) ) ;
#50 = DIRECTION ( 'NONE',  ( 0.000000000000000000, 0.000000000000000000, 1.000000000000000000 ) ) ;
#51 = ORIENTED_EDGE ( 'NONE', *, *, #120, .F. ) ;
#52 = STYLED_ITEM ( 'NONE', ( #27 ), #13 ) ;
#53 = EDGE_CURVE ( 'NONE', #84, #68, #39, .T. ) ;
#54 = CIRCLE ( 'NONE', #47, 8.499999999999996447 ) ;
#55 = VERTEX_POINT ( 'NONE', #195 ) ;
#56 = EDGE_LOOP ( 'NONE', ( #161, #214, #1, #124 ) ) ;
#57 = DIRECTION ( 'NONE',  ( 1.000000000000000000, -4.116626217457493946E-17, 5.775242064348982448E-17 ) ) ;
#58 = FACE_OUTER_BOUND ( 'NONE', #121, .T. ) ;
#59 = ORIENTED_EDGE ( 'NONE', *, *, #25, .T. ) ;
#60 = ADVANCED_FACE ( 'NONE', ( #12, #105 ), #141, .T. ) ;
#61 = APPLICATION_CONTEXT ( 'automotive_design' ) ;
#62 = DIRECTION ( 'NONE',  ( 1.000000000000000000, -4.116626217457494562E-17, -3.702524192079764128E-17 ) ) ;
#63 = DIRECTION ( 'NONE',  ( 1.000000000000000000, -4.116626217457494562E-17, -3.702524192079764128E-17 ) ) ;
#64 = DIRECTION ( 'NONE',  ( 6.377659838150028693E-17, 0.000000000000000000, -1.000000000000000000 ) ) ;
#65 = CIRCLE ( 'NONE', #106, 8.499999999999996447 ) ;
#66 = CARTESIAN_POINT ( 'NONE',  ( 0.000000000000000000, 0.000000000000000000, 0.000000000000000000 ) ) ;
#67 = EDGE_CURVE ( 'NONE', #68, #172, #7, .T. ) ;
#68 = VERTEX_POINT ( 'NONE', #30 ) ;
#69 = ORIENTED_EDGE ( 'NONE', *, *, #53, .T. ) ;
#70 =( LENGTH_UNIT ( ) NAMED_UNIT ( * ) SI_UNIT ( .MILLI., .METRE. ) );
#71 =( GEOMETRIC_REPRESENTATION_CONTEXT ( 3 ) GLOBAL_UNCERTAINTY_ASSIGNED_CONTEXT ( ( #132 ) ) GLOBAL_UNIT_ASSIGNED_CONTEXT ( ( #87, #212, #28 ) ) REPRESENTATION_CONTEXT ( 'NONE', 'WORKASPACE' ) );
#72 = EDGE_LOOP ( 'NONE', ( #9, #59, #139, #192 ) ) ;
#73 = AXIS2_PLACEMENT_3D ( 'NONE', #113, #32, #167 ) ;
#74 = ORIENTED_EDGE ( 'NONE', *, *, #162, .F. ) ;
#75 = VECTOR ( 'NONE', #45, 1000.000000000000000 ) ;
#76 = CARTESIAN_POINT ( 'NONE',  ( 0.000000000000000000, 5.249999999999997335, -1.734723475976807094E-15 ) ) ;
#77 = EDGE_CURVE ( 'NONE', #172, #68, #177, .T. ) ;
#78 = SURFACE_SIDE_STYLE ('',( #16 ) ) ;
#79 = FACE_OUTER_BOUND ( 'NONE', #72, .T. ) ;
#80 = DIRECTION ( 'NONE',  ( 5.775242064348984914E-17, 0.000000000000000000, -1.000000000000000000 ) ) ;
#81 = CARTESIAN_POINT ( 'NONE',  ( -0.6999999999999992895, 1.387778780781445676E-14, -3.469446951953614189E-15 ) ) ;
#82 = DIRECTION ( 'NONE',  ( 1.000000000000000000, -4.116626217457494562E-17, -3.702524192079764128E-17 ) ) ;
#83 = EDGE_CURVE ( 'NONE', #55, #123, #54, .T. ) ;
#84 = VERTEX_POINT ( 'NONE', #5 ) ;
#85 = SURFACE_STYLE_USAGE ( .BOTH. , #136 ) ;
#86 = AXIS2_PLACEMENT_3D ( 'NONE', #76, #57, #29 ) ;
#87 =( LENGTH_UNIT ( ) NAMED_UNIT ( * ) SI_UNIT ( .MILLI., .METRE. ) );
#88 = DIRECTION ( 'NONE',  ( 1.000000000000000000, -4.116626217457494562E-17, -3.702524192079764128E-17 ) ) ;
#89 = ORIENTED_EDGE ( 'NONE', *, *, #118, .T. ) ;
#90 = CARTESIAN_POINT ( 'NONE',  ( 0.000000000000000000, 0.000000000000000000, 0.000000000000000000 ) ) ;
#91 = EDGE_LOOP ( 'NONE', ( #164, #210 ) ) ;
#92 =( LENGTH_UNIT ( ) NAMED_UNIT ( * ) SI_UNIT ( .MILLI., .METRE. ) );
#93 = APPLICATION_PROTOCOL_DEFINITION ( 'draft international standard', 'automotive_design', 1998, #61 ) ;
#94 = EDGE_CURVE ( 'NONE', #84, #11, #169, .T. ) ;
#95 = CARTESIAN_POINT ( 'NONE',  ( 3.032002083783215169E-16, 0.000000000000000000, -5.249999999999998224 ) ) ;
#96 = AXIS2_PLACEMENT_3D ( 'NONE', #153, #50, #187 ) ;
#97 = SURFACE_STYLE_FILL_AREA ( #191 ) ;
#98 = PRESENTATION_STYLE_ASSIGNMENT (( #85 ) ) ;
#99 = VECTOR ( 'NONE', #82, 1000.000000000000000 ) ;
#100 = EDGE_LOOP ( 'NONE', ( #107, #142 ) ) ;
#101 = EDGE_CURVE ( 'NONE', #11, #84, #34, .T. ) ;
#102 = VERTEX_POINT ( 'NONE', #131 ) ;
#103 = DIRECTION ( 'NONE',  ( 0.000000000000000000, 0.000000000000000000, -1.000000000000000000 ) ) ;
#104 = AXIS2_PLACEMENT_3D ( 'NONE', #178, #88, #14 ) ;
#105 = FACE_BOUND ( 'NONE', #91, .T. ) ;
#106 = AXIS2_PLACEMENT_3D ( 'NONE', #66, #44, #204 ) ;
#107 = ORIENTED_EDGE ( 'NONE', *, *, #101, .T. ) ;
#108 = CARTESIAN_POINT ( 'NONE',  ( 7.206746031746039449, 1.452072737736681628E-14, 5.249999999999996447 ) ) ;
#109 = CARTESIAN_POINT ( 'NONE',  ( 7.206746031746038561, 1.491873758708970867E-14, 8.499999999999994671 ) ) ;
#110 = PRESENTATION_LAYER_ASSIGNMENT (  '', '', ( #117 ) ) ;
#111 = CARTESIAN_POINT ( 'NONE',  ( -0.7000000000000056177, 1.387778780781445676E-14, -8.499999999999996447 ) ) ;
#112 = CARTESIAN_POINT ( 'NONE',  ( 0.000000000000000000, 0.000000000000000000, 0.000000000000000000 ) ) ;
#113 = CARTESIAN_POINT ( 'NONE',  ( 7.206746031746039449, 1.387778780781445676E-14, -1.734723475976807094E-15 ) ) ;
#114 = DIRECTION ( 'NONE',  ( 1.020425574104004615E-16, 0.000000000000000000, -1.000000000000000000 ) ) ;
#115 = MECHANICAL_DESIGN_GEOMETRIC_PRESENTATION_REPRESENTATION (  '', ( #52 ), #71 ) ;
#116 = PRODUCT_CONTEXT ( 'NONE', #61, 'mechanical' ) ;
#117 = STYLED_ITEM ( 'NONE', ( #98 ), #134 ) ;
#118 = EDGE_CURVE ( 'NONE', #197, #55, #127, .T. ) ;
#119 = ORIENTED_EDGE ( 'NONE', *, *, #162, .T. ) ;
#120 = EDGE_CURVE ( 'NONE', #11, #172, #133, .T. ) ;
#121 = EDGE_LOOP ( 'NONE', ( #190, #125, #89, #74 ) ) ;
#122 = FILL_AREA_STYLE_COLOUR ( '', #189 ) ;
#123 = VERTEX_POINT ( 'NONE', #199 ) ;
#124 = ORIENTED_EDGE ( 'NONE', *, *, #77, .T. ) ;
#125 = ORIENTED_EDGE ( 'NONE', *, *, #205, .T. ) ;
#126 = AXIS2_PLACEMENT_3D ( 'NONE', #90, #207, #148 ) ;
#127 = LINE ( 'NONE', #183, #75 ) ;
#128 = CYLINDRICAL_SURFACE ( 'NONE', #73, 5.249999999999998224 ) ;
#129 = PLANE ( 'NONE',  #18 ) ;
#130 = CIRCLE ( 'NONE', #160, 8.499999999999996447 ) ;
#131 = CARTESIAN_POINT ( 'NONE',  ( -0.7000000000000058398, 1.522982057541924499E-14, 8.499999999999998224 ) ) ;
#132 = UNCERTAINTY_MEASURE_WITH_UNIT (LENGTH_MEASURE( 1.000000000000000082E-05 ), #87, 'distance_accuracy_value', 'NONE');
#133 = LINE ( 'NONE', #202, #99 ) ;
#134 = ADVANCED_BREP_SHAPE_REPRESENTATION ( 'J00.405.010.000', ( #13, #96 ), #186 ) ;
#135 = ORIENTED_EDGE ( 'NONE', *, *, #67, .T. ) ;
#136 = SURFACE_SIDE_STYLE ('',( #97 ) ) ;
#137 = ORIENTED_EDGE ( 'NONE', *, *, #94, .F. ) ;
#138 =( NAMED_UNIT ( * ) PLANE_ANGLE_UNIT ( ) SI_UNIT ( $, .RADIAN. ) );
#139 = ORIENTED_EDGE ( 'NONE', *, *, #83, .F. ) ;
#140 = COLOUR_RGB ( '',0.6862745098039215730, 0.6078431372549019107, 0.5294117647058823595 ) ;
#141 = PLANE ( 'NONE',  #86 ) ;
#142 = ORIENTED_EDGE ( 'NONE', *, *, #94, .T. ) ;
#143 = DIRECTION ( 'NONE',  ( 5.775242064348983681E-17, 0.000000000000000000, -1.000000000000000000 ) ) ;
#144 = CARTESIAN_POINT ( 'NONE',  ( 0.000000000000000000, 0.000000000000000000, 0.000000000000000000 ) ) ;
#145 = ADVANCED_FACE ( 'NONE', ( #79 ), #181, .T. ) ;
#146 = DIRECTION ( 'NONE',  ( 6.195440985631456550E-17, 0.000000000000000000, -1.000000000000000000 ) ) ;
#147 = DIRECTION ( 'NONE',  ( 1.000000000000000000, -4.116626217457494562E-17, -3.702524192079764128E-17 ) ) ;
#148 = DIRECTION ( 'NONE',  ( 5.775242064348983681E-17, 0.000000000000000000, -1.000000000000000000 ) ) ;
#149 = DIRECTION ( 'NONE',  ( -5.775242064348982448E-17, 0.000000000000000000, 1.000000000000000000 ) ) ;
#150 = VECTOR ( 'NONE', #196, 1000.000000000000000 ) ;
#151 = CARTESIAN_POINT ( 'NONE',  ( -0.7000000000000061728, 1.387778780781445676E-14, 0.000000000000000000 ) ) ;
#152 = UNCERTAINTY_MEASURE_WITH_UNIT (LENGTH_MEASURE( 1.000000000000000082E-05 ), #70, 'distance_accuracy_value', 'NONE');
#153 = CARTESIAN_POINT ( 'NONE',  ( 0.000000000000000000, 0.000000000000000000, 0.000000000000000000 ) ) ;
#154 = UNCERTAINTY_MEASURE_WITH_UNIT (LENGTH_MEASURE( 1.000000000000000082E-05 ), #92, 'distance_accuracy_value', 'NONE');
#155 = EDGE_LOOP ( 'NONE', ( #8, #188 ) ) ;
#156 = AXIS2_PLACEMENT_3D ( 'NONE', #81, #62, #21 ) ;
#157 = DIRECTION ( 'NONE',  ( 1.000000000000000000, -4.116626217457494562E-17, -3.702524192079764128E-17 ) ) ;
#158 = EDGE_CURVE ( 'NONE', #197, #102, #130, .T. ) ;
#159 = DIRECTION ( 'NONE',  ( 1.000000000000000000, -4.116626217457494562E-17, -3.702524192079764128E-17 ) ) ;
#160 = AXIS2_PLACEMENT_3D ( 'NONE', #19, #147, #33 ) ;
#161 = ORIENTED_EDGE ( 'NONE', *, *, #53, .F. ) ;
#162 = EDGE_CURVE ( 'NONE', #123, #55, #65, .T. ) ;
#163 = PRODUCT ( 'J00.405.010.000', 'J00.405.010.000', '', ( #116 ) ) ;
#164 = ORIENTED_EDGE ( 'NONE', *, *, #77, .F. ) ;
#165 = DIRECTION ( 'NONE',  ( 1.000000000000000000, -4.116626217457494562E-17, -3.702524192079764128E-17 ) ) ;
#166 =( NAMED_UNIT ( * ) SI_UNIT ( $, .STERADIAN. ) SOLID_ANGLE_UNIT ( ) );
#167 = DIRECTION ( 'NONE',  ( 0.000000000000000000, 0.000000000000000000, -1.000000000000000000 ) ) ;
#168 = CIRCLE ( 'NONE', #213, 8.499999999999996447 ) ;
#169 = CIRCLE ( 'NONE', #203, 5.249999999999998224 ) ;
#170 = EDGE_LOOP ( 'NONE', ( #137, #69, #135, #51 ) ) ;
#171 = SHAPE_DEFINITION_REPRESENTATION ( #209, #134 ) ;
#172 = VERTEX_POINT ( 'NONE', #95 ) ;
#173 = PRESENTATION_LAYER_ASSIGNMENT (  '', '', ( #52 ) ) ;
#174 = EDGE_LOOP ( 'NONE', ( #36, #119 ) ) ;
#175 = LINE ( 'NONE', #109, #150 ) ;
#176 = ADVANCED_FACE ( 'NONE', ( #182, #48 ), #129, .T. ) ;
#177 = CIRCLE ( 'NONE', #126, 5.249999999999998224 ) ;
#178 = CARTESIAN_POINT ( 'NONE',  ( 7.206746031746039449, 1.387778780781445676E-14, -1.734723475976807094E-15 ) ) ;
#179 = PRODUCT_DEFINITION_FORMATION_WITH_SPECIFIED_SOURCE ( 'ANY', '', #163, .NOT_KNOWN. ) ;
#180 = FACE_OUTER_BOUND ( 'NONE', #170, .T. ) ;
#181 = CYLINDRICAL_SURFACE ( 'NONE', #35, 8.499999999999996447 ) ;
#182 = FACE_BOUND ( 'NONE', #100, .T. ) ;
#183 = CARTESIAN_POINT ( 'NONE',  ( 7.206746031746040337, 1.387778780781445676E-14, -8.499999999999998224 ) ) ;
#184 = AXIS2_PLACEMENT_3D ( 'NONE', #41, #38, #103 ) ;
#185 = PRODUCT_DEFINITION_CONTEXT ( 'detailed design', #37, 'design' ) ;
#186 =( GEOMETRIC_REPRESENTATION_CONTEXT ( 3 ) GLOBAL_UNCERTAINTY_ASSIGNED_CONTEXT ( ( #154 ) ) GLOBAL_UNIT_ASSIGNED_CONTEXT ( ( #92, #201, #166 ) ) REPRESENTATION_CONTEXT ( 'NONE', 'WORKASPACE' ) );
#187 = DIRECTION ( 'NONE',  ( 1.000000000000000000, 0.000000000000000000, 0.000000000000000000 ) ) ;
#188 = ORIENTED_EDGE ( 'NONE', *, *, #205, .F. ) ;
#189 = COLOUR_RGB ( '',0.6862745098039215730, 0.6078431372549019107, 0.5294117647058823595 ) ;
#190 = ORIENTED_EDGE ( 'NONE', *, *, #25, .F. ) ;
#191 = FILL_AREA_STYLE ('',( #26 ) ) ;
#192 = ORIENTED_EDGE ( 'NONE', *, *, #118, .F. ) ;
#193 = FACE_OUTER_BOUND ( 'NONE', #56, .T. ) ;
#194 = SURFACE_STYLE_USAGE ( .BOTH. , #78 ) ;
#195 = CARTESIAN_POINT ( 'NONE',  ( 4.908955754696634835E-16, 0.000000000000000000, -8.499999999999996447 ) ) ;
#196 = DIRECTION ( 'NONE',  ( 1.000000000000000000, -4.116626217457494562E-17, -3.702524192079764128E-17 ) ) ;
#197 = VERTEX_POINT ( 'NONE', #111 ) ;
#198 = CLOSED_SHELL ( 'NONE', ( #145, #206, #42, #176, #22, #60 ) ) ;
#199 = CARTESIAN_POINT ( 'NONE',  ( 3.147145563267805795E-16, 1.522982057541925130E-14, 8.499999999999998224 ) ) ;
#200 =( GEOMETRIC_REPRESENTATION_CONTEXT ( 3 ) GLOBAL_UNCERTAINTY_ASSIGNED_CONTEXT ( ( #152 ) ) GLOBAL_UNIT_ASSIGNED_CONTEXT ( ( #70, #138, #24 ) ) REPRESENTATION_CONTEXT ( 'NONE', 'WORKASPACE' ) );
#201 =( NAMED_UNIT ( * ) PLANE_ANGLE_UNIT ( ) SI_UNIT ( $, .RADIAN. ) );
#202 = CARTESIAN_POINT ( 'NONE',  ( 7.206746031746039449, 1.387778780781445676E-14, -5.250000000000000000 ) ) ;
#203 = AXIS2_PLACEMENT_3D ( 'NONE', #17, #63, #146 ) ;
#204 = DIRECTION ( 'NONE',  ( 5.775242064348984914E-17, 0.000000000000000000, -1.000000000000000000 ) ) ;
#205 = EDGE_CURVE ( 'NONE', #102, #197, #168, .T. ) ;
#206 = ADVANCED_FACE ( 'NONE', ( #180 ), #128, .F. ) ;
#207 = DIRECTION ( 'NONE',  ( 1.000000000000000000, -4.116626217457494562E-17, -3.702524192079764128E-17 ) ) ;
#208 = APPLICATION_PROTOCOL_DEFINITION ( 'draft international standard', 'automotive_design', 1998, #37 ) ;
#209 = PRODUCT_DEFINITION_SHAPE ( 'NONE', 'NONE',  #20 ) ;
#210 = ORIENTED_EDGE ( 'NONE', *, *, #67, .F. ) ;
#211 = PRODUCT_RELATED_PRODUCT_CATEGORY ( 'part', '', ( #163 ) ) ;
#212 =( NAMED_UNIT ( * ) PLANE_ANGLE_UNIT ( ) SI_UNIT ( $, .RADIAN. ) );
#213 = AXIS2_PLACEMENT_3D ( 'NONE', #151, #6, #64 ) ;
#214 = ORIENTED_EDGE ( 'NONE', *, *, #101, .F. ) ;
ENDSEC;
END-ISO-10303-21;
