ISO-10303-21;
HEADER;
FILE_DESCRIPTION (( 'STEP AP214' ),
    '1' );
FILE_NAME ('J00.405.012.000.STEP',
    '2024-06-19T09:34:20',
    ( '' ),
    ( '' ),
    'SwSTEP 2.0',
    'SolidWorks 2022',
    '' );
FILE_SCHEMA (( 'AUTOMOTIVE_DESIGN' ));
ENDSEC;

DATA;
#1 = FILL_AREA_STYLE ('',( #154 ) ) ;
#2 = PRESENTATION_LAYER_ASSIGNMENT (  '', '', ( #51 ) ) ;
#3 = PRODUCT_RELATED_PRODUCT_CATEGORY ( 'part', '', ( #141 ) ) ;
#4 = DIRECTION ( 'NONE',  ( 1.000000000000000000, -0.000000000000000000, -0.000000000000000000 ) ) ;
#5 = CARTESIAN_POINT ( 'NONE',  ( 7.206746031746035897, 7.960204194457794491E-16, 6.499999999999999112 ) ) ;
#6 = UNCERTAINTY_MEASURE_WITH_UNIT (LENGTH_MEASURE( 1.000000000000000082E-05 ), #186, 'distance_accuracy_value', 'NONE');
#7 = DIRECTION ( 'NONE',  ( 1.000000000000000000, -0.000000000000000000, -0.000000000000000000 ) ) ;
#8 = CARTESIAN_POINT ( 'NONE',  ( -0.8999999999999998002, 0.000000000000000000, -6.499999999999999112 ) ) ;
#9 = DIRECTION ( 'NONE',  ( 1.000000000000000000, -0.000000000000000000, -0.000000000000000000 ) ) ;
#10 = ADVANCED_FACE ( 'NONE', ( #86, #116 ), #153, .T. ) ;
#11 = PRODUCT_CONTEXT ( 'NONE', #73, 'mechanical' ) ;
#12 = EDGE_LOOP ( 'NONE', ( #50, #112 ) ) ;
#13 = EDGE_LOOP ( 'NONE', ( #130, #178 ) ) ;
#14 = AXIS2_PLACEMENT_3D ( 'NONE', #104, #102, #19 ) ;
#15 = PRODUCT_DEFINITION_SHAPE ( 'NONE', 'NONE',  #44 ) ;
#16 = CARTESIAN_POINT ( 'NONE',  ( -4.336808689942017736E-16, 6.499999999999999112, 0.000000000000000000 ) ) ;
#17 = CARTESIAN_POINT ( 'NONE',  ( 7.206746031746035897, 0.000000000000000000, 0.000000000000000000 ) ) ;
#18 = DIRECTION ( 'NONE',  ( 0.000000000000000000, 0.000000000000000000, 1.000000000000000000 ) ) ;
#19 = DIRECTION ( 'NONE',  ( 0.000000000000000000, 0.000000000000000000, -1.000000000000000000 ) ) ;
#20 = ADVANCED_FACE ( 'NONE', ( #57 ), #38, .F. ) ;
#21 = VECTOR ( 'NONE', #124, 1000.000000000000000 ) ;
#22 = CIRCLE ( 'NONE', #77, 10.49999999999999822 ) ;
#23 =( NAMED_UNIT ( * ) SI_UNIT ( $, .STERADIAN. ) SOLID_ANGLE_UNIT ( ) );
#24 = EDGE_CURVE ( 'NONE', #192, #100, #67, .T. ) ;
#25 = CARTESIAN_POINT ( 'NONE',  ( 7.206746031746035897, 0.000000000000000000, 0.000000000000000000 ) ) ;
#26 = LINE ( 'NONE', #5, #21 ) ;
#27 = AXIS2_PLACEMENT_3D ( 'NONE', #159, #188, #204 ) ;
#28 = SHAPE_DEFINITION_REPRESENTATION ( #15, #145 ) ;
#29 = ORIENTED_EDGE ( 'NONE', *, *, #208, .F. ) ;
#30 = ORIENTED_EDGE ( 'NONE', *, *, #46, .T. ) ;
#31 = EDGE_CURVE ( 'NONE', #209, #149, #173, .T. ) ;
#32 = ORIENTED_EDGE ( 'NONE', *, *, #150, .F. ) ;
#33 = DIRECTION ( 'NONE',  ( 0.000000000000000000, 0.000000000000000000, 1.000000000000000000 ) ) ;
#34 = AXIS2_PLACEMENT_3D ( 'NONE', #71, #118, #18 ) ;
#35 = AXIS2_PLACEMENT_3D ( 'NONE', #65, #33, #110 ) ;
#36 =( LENGTH_UNIT ( ) NAMED_UNIT ( * ) SI_UNIT ( .MILLI., .METRE. ) );
#37 = DIRECTION ( 'NONE',  ( 1.000000000000000000, -0.000000000000000000, -0.000000000000000000 ) ) ;
#38 = CYLINDRICAL_SURFACE ( 'NONE', #43, 6.499999999999999112 ) ;
#39 = DIRECTION ( 'NONE',  ( 1.000000000000000000, -0.000000000000000000, -0.000000000000000000 ) ) ;
#40 = ADVANCED_FACE ( 'NONE', ( #151 ), #134, .T. ) ;
#41 = FACE_OUTER_BOUND ( 'NONE', #13, .T. ) ;
#42 = CYLINDRICAL_SURFACE ( 'NONE', #144, 10.49999999999999822 ) ;
#43 = AXIS2_PLACEMENT_3D ( 'NONE', #155, #182, #184 ) ;
#44 = PRODUCT_DEFINITION ( 'UNKNOWN', '', #94, #128 ) ;
#45 = EDGE_LOOP ( 'NONE', ( #207, #210, #175, #32 ) ) ;
#46 = EDGE_CURVE ( 'NONE', #146, #131, #63, .T. ) ;
#47 = ORIENTED_EDGE ( 'NONE', *, *, #31, .F. ) ;
#48 = EDGE_LOOP ( 'NONE', ( #111, #196, #30, #64 ) ) ;
#49 = ORIENTED_EDGE ( 'NONE', *, *, #97, .F. ) ;
#50 = ORIENTED_EDGE ( 'NONE', *, *, #31, .T. ) ;
#51 = STYLED_ITEM ( 'NONE', ( #169 ), #126 ) ;
#52 = DIRECTION ( 'NONE',  ( 1.000000000000000000, -0.000000000000000000, -0.000000000000000000 ) ) ;
#53 = DIRECTION ( 'NONE',  ( 1.000000000000000000, -0.000000000000000000, -0.000000000000000000 ) ) ;
#54 = EDGE_LOOP ( 'NONE', ( #92, #66, #129, #79 ) ) ;
#55 = AXIS2_PLACEMENT_3D ( 'NONE', #139, #39, #70 ) ;
#56 = STYLED_ITEM ( 'NONE', ( #187 ), #145 ) ;
#57 = FACE_OUTER_BOUND ( 'NONE', #163, .T. ) ;
#58 =( LENGTH_UNIT ( ) NAMED_UNIT ( * ) SI_UNIT ( .MILLI., .METRE. ) );
#59 = CARTESIAN_POINT ( 'NONE',  ( 0.000000000000000000, 0.000000000000000000, -6.499999999999999112 ) ) ;
#60 = DIRECTION ( 'NONE',  ( 1.000000000000000000, -0.000000000000000000, -0.000000000000000000 ) ) ;
#61 = DIRECTION ( 'NONE',  ( 0.000000000000000000, 0.000000000000000000, -1.000000000000000000 ) ) ;
#62 = SURFACE_STYLE_USAGE ( .BOTH. , #142 ) ;
#63 = CIRCLE ( 'NONE', #55, 6.499999999999999112 ) ;
#64 = ORIENTED_EDGE ( 'NONE', *, *, #212, .F. ) ;
#65 = CARTESIAN_POINT ( 'NONE',  ( 0.000000000000000000, 0.000000000000000000, 0.000000000000000000 ) ) ;
#66 = ORIENTED_EDGE ( 'NONE', *, *, #120, .T. ) ;
#67 = LINE ( 'NONE', #132, #136 ) ;
#68 = DIRECTION ( 'NONE',  ( -0.000000000000000000, 0.000000000000000000, -1.000000000000000000 ) ) ;
#69 = DIRECTION ( 'NONE',  ( 0.000000000000000000, 0.000000000000000000, -1.000000000000000000 ) ) ;
#70 = DIRECTION ( 'NONE',  ( 0.000000000000000000, 0.000000000000000000, -1.000000000000000000 ) ) ;
#71 = CARTESIAN_POINT ( 'NONE',  ( -0.9000000000000002442, 10.49999999999999822, 0.000000000000000000 ) ) ;
#72 = UNCERTAINTY_MEASURE_WITH_UNIT (LENGTH_MEASURE( 1.000000000000000082E-05 ), #36, 'distance_accuracy_value', 'NONE');
#73 = APPLICATION_CONTEXT ( 'automotive_design' ) ;
#74 = EDGE_CURVE ( 'NONE', #149, #209, #87, .T. ) ;
#75 = SURFACE_STYLE_FILL_AREA ( #89 ) ;
#76 = APPLICATION_PROTOCOL_DEFINITION ( 'draft international standard', 'automotive_design', 1998, #199 ) ;
#77 = AXIS2_PLACEMENT_3D ( 'NONE', #167, #9, #61 ) ;
#78 = EDGE_CURVE ( 'NONE', #162, #192, #191, .T. ) ;
#79 = ORIENTED_EDGE ( 'NONE', *, *, #24, .F. ) ;
#80 = MECHANICAL_DESIGN_GEOMETRIC_PRESENTATION_REPRESENTATION (  '', ( #51 ), #138 ) ;
#81 = ADVANCED_FACE ( 'NONE', ( #41, #115 ), #213, .T. ) ;
#82 = EDGE_LOOP ( 'NONE', ( #49, #174 ) ) ;
#83 = CARTESIAN_POINT ( 'NONE',  ( -0.8999999999999998002, 0.000000000000000000, 0.000000000000000000 ) ) ;
#84 = ADVANCED_FACE ( 'NONE', ( #152 ), #197, .F. ) ;
#85 = DIRECTION ( 'NONE',  ( 1.000000000000000000, -0.000000000000000000, -0.000000000000000000 ) ) ;
#86 = FACE_BOUND ( 'NONE', #12, .T. ) ;
#87 = CIRCLE ( 'NONE', #88, 6.499999999999999112 ) ;
#88 = AXIS2_PLACEMENT_3D ( 'NONE', #168, #53, #117 ) ;
#89 = FILL_AREA_STYLE ('',( #143 ) ) ;
#90 = CARTESIAN_POINT ( 'NONE',  ( -8.673617379884035472E-16, 1.285879139104720633E-15, 10.49999999999999822 ) ) ;
#91 = DIRECTION ( 'NONE',  ( 0.000000000000000000, 0.000000000000000000, -1.000000000000000000 ) ) ;
#92 = ORIENTED_EDGE ( 'NONE', *, *, #208, .T. ) ;
#93 = ORIENTED_EDGE ( 'NONE', *, *, #78, .F. ) ;
#94 = PRODUCT_DEFINITION_FORMATION_WITH_SPECIFIED_SOURCE ( 'ANY', '', #141, .NOT_KNOWN. ) ;
#95 = EDGE_LOOP ( 'NONE', ( #29, #93 ) ) ;
#96 =( NAMED_UNIT ( * ) SI_UNIT ( $, .STERADIAN. ) SOLID_ANGLE_UNIT ( ) );
#97 = EDGE_CURVE ( 'NONE', #131, #146, #205, .T. ) ;
#98 = AXIS2_PLACEMENT_3D ( 'NONE', #140, #125, #91 ) ;
#99 =( GEOMETRIC_REPRESENTATION_CONTEXT ( 3 ) GLOBAL_UNCERTAINTY_ASSIGNED_CONTEXT ( ( #6 ) ) GLOBAL_UNIT_ASSIGNED_CONTEXT ( ( #186, #123, #23 ) ) REPRESENTATION_CONTEXT ( 'NONE', 'WORKASPACE' ) );
#100 = VERTEX_POINT ( 'NONE', #181 ) ;
#101 = DIRECTION ( 'NONE',  ( 1.000000000000000000, 0.000000000000000000, -0.000000000000000000 ) ) ;
#102 = DIRECTION ( 'NONE',  ( 1.000000000000000000, -0.000000000000000000, -0.000000000000000000 ) ) ;
#103 = CARTESIAN_POINT ( 'NONE',  ( 7.206746031746035897, 0.000000000000000000, 0.000000000000000000 ) ) ;
#104 = CARTESIAN_POINT ( 'NONE',  ( 0.000000000000000000, 0.000000000000000000, 0.000000000000000000 ) ) ;
#105 = CARTESIAN_POINT ( 'NONE',  ( 7.206746031746035897, 1.285879139104720633E-15, 10.49999999999999822 ) ) ;
#106 = VECTOR ( 'NONE', #133, 1000.000000000000000 ) ;
#107 =( NAMED_UNIT ( * ) PLANE_ANGLE_UNIT ( ) SI_UNIT ( $, .RADIAN. ) );
#108 = CARTESIAN_POINT ( 'NONE',  ( -0.8999999999999998002, 7.960204194457794491E-16, 6.499999999999999112 ) ) ;
#109 = CARTESIAN_POINT ( 'NONE',  ( -0.8999999999999998002, 1.285879139104720633E-15, 10.49999999999999822 ) ) ;
#110 = DIRECTION ( 'NONE',  ( 1.000000000000000000, 0.000000000000000000, 0.000000000000000000 ) ) ;
#111 = ORIENTED_EDGE ( 'NONE', *, *, #74, .F. ) ;
#112 = ORIENTED_EDGE ( 'NONE', *, *, #74, .T. ) ;
#113 = AXIS2_PLACEMENT_3D ( 'NONE', #194, #37, #183 ) ;
#114 = AXIS2_PLACEMENT_3D ( 'NONE', #103, #119, #200 ) ;
#115 = FACE_BOUND ( 'NONE', #82, .T. ) ;
#116 = FACE_OUTER_BOUND ( 'NONE', #95, .T. ) ;
#117 = DIRECTION ( 'NONE',  ( 0.000000000000000000, 0.000000000000000000, -1.000000000000000000 ) ) ;
#118 = DIRECTION ( 'NONE',  ( -1.000000000000000000, 0.000000000000000000, 0.000000000000000000 ) ) ;
#119 = DIRECTION ( 'NONE',  ( 1.000000000000000000, -0.000000000000000000, -0.000000000000000000 ) ) ;
#120 = EDGE_CURVE ( 'NONE', #162, #165, #166, .T. ) ;
#121 = FACE_OUTER_BOUND ( 'NONE', #45, .T. ) ;
#122 =( NAMED_UNIT ( * ) PLANE_ANGLE_UNIT ( ) SI_UNIT ( $, .RADIAN. ) );
#123 =( NAMED_UNIT ( * ) PLANE_ANGLE_UNIT ( ) SI_UNIT ( $, .RADIAN. ) );
#124 = DIRECTION ( 'NONE',  ( 1.000000000000000000, -0.000000000000000000, -0.000000000000000000 ) ) ;
#125 = DIRECTION ( 'NONE',  ( 1.000000000000000000, -0.000000000000000000, -0.000000000000000000 ) ) ;
#126 = MANIFOLD_SOLID_BREP ( 'Rotation1', #179 ) ;
#127 = COLOUR_RGB ( '',0.6470588235294117974, 0.6196078431372549211, 0.5882352941176470784 ) ;
#128 = PRODUCT_DEFINITION_CONTEXT ( 'detailed design', #199, 'design' ) ;
#129 = ORIENTED_EDGE ( 'NONE', *, *, #135, .F. ) ;
#130 = ORIENTED_EDGE ( 'NONE', *, *, #135, .T. ) ;
#131 = VERTEX_POINT ( 'NONE', #59 ) ;
#132 = CARTESIAN_POINT ( 'NONE',  ( 7.206746031746035897, 0.000000000000000000, -10.49999999999999822 ) ) ;
#133 = DIRECTION ( 'NONE',  ( 1.000000000000000000, -0.000000000000000000, -0.000000000000000000 ) ) ;
#134 = CYLINDRICAL_SURFACE ( 'NONE', #193, 10.49999999999999822 ) ;
#135 = EDGE_CURVE ( 'NONE', #100, #165, #22, .T. ) ;
#136 = VECTOR ( 'NONE', #85, 1000.000000000000000 ) ;
#137 = SURFACE_STYLE_FILL_AREA ( #1 ) ;
#138 =( GEOMETRIC_REPRESENTATION_CONTEXT ( 3 ) GLOBAL_UNCERTAINTY_ASSIGNED_CONTEXT ( ( #72 ) ) GLOBAL_UNIT_ASSIGNED_CONTEXT ( ( #36, #122, #202 ) ) REPRESENTATION_CONTEXT ( 'NONE', 'WORKASPACE' ) );
#139 = CARTESIAN_POINT ( 'NONE',  ( 0.000000000000000000, 0.000000000000000000, 0.000000000000000000 ) ) ;
#140 = CARTESIAN_POINT ( 'NONE',  ( -8.673617379884035472E-16, 0.000000000000000000, 0.000000000000000000 ) ) ;
#141 = PRODUCT ( 'J00.405.012.000', 'J00.405.012.000', '', ( #11 ) ) ;
#142 = SURFACE_SIDE_STYLE ('',( #75 ) ) ;
#143 = FILL_AREA_STYLE_COLOUR ( '', #127 ) ;
#144 = AXIS2_PLACEMENT_3D ( 'NONE', #25, #60, #172 ) ;
#145 = ADVANCED_BREP_SHAPE_REPRESENTATION ( 'J00.405.012.000', ( #126, #35 ), #99 ) ;
#146 = VERTEX_POINT ( 'NONE', #157 ) ;
#147 = VECTOR ( 'NONE', #7, 1000.000000000000000 ) ;
#148 = ORIENTED_EDGE ( 'NONE', *, *, #97, .T. ) ;
#149 = VERTEX_POINT ( 'NONE', #108 ) ;
#150 = EDGE_CURVE ( 'NONE', #165, #100, #189, .T. ) ;
#151 = FACE_OUTER_BOUND ( 'NONE', #54, .T. ) ;
#152 = FACE_OUTER_BOUND ( 'NONE', #48, .T. ) ;
#153 = PLANE ( 'NONE',  #34 ) ;
#154 = FILL_AREA_STYLE_COLOUR ( '', #156 ) ;
#155 = CARTESIAN_POINT ( 'NONE',  ( 7.206746031746035897, 0.000000000000000000, 0.000000000000000000 ) ) ;
#156 = COLOUR_RGB ( '',0.6470588235294117974, 0.6196078431372549211, 0.5882352941176470784 ) ;
#157 = CARTESIAN_POINT ( 'NONE',  ( 0.000000000000000000, 7.960204194457794491E-16, 6.499999999999999112 ) ) ;
#158 = CARTESIAN_POINT ( 'NONE',  ( -0.8999999999999998002, 0.000000000000000000, -10.49999999999999822 ) ) ;
#159 = CARTESIAN_POINT ( 'NONE',  ( -0.8999999999999998002, 0.000000000000000000, 0.000000000000000000 ) ) ;
#160 = MECHANICAL_DESIGN_GEOMETRIC_PRESENTATION_REPRESENTATION (  '', ( #56 ), #176 ) ;
#161 = ADVANCED_FACE ( 'NONE', ( #121 ), #42, .T. ) ;
#162 = VERTEX_POINT ( 'NONE', #109 ) ;
#163 = EDGE_LOOP ( 'NONE', ( #211, #47, #177, #148 ) ) ;
#164 = AXIS2_PLACEMENT_3D ( 'NONE', #83, #52, #69 ) ;
#165 = VERTEX_POINT ( 'NONE', #90 ) ;
#166 = LINE ( 'NONE', #105, #106 ) ;
#167 = CARTESIAN_POINT ( 'NONE',  ( -8.673617379884035472E-16, 0.000000000000000000, 0.000000000000000000 ) ) ;
#168 = CARTESIAN_POINT ( 'NONE',  ( -0.8999999999999998002, 0.000000000000000000, 0.000000000000000000 ) ) ;
#169 = PRESENTATION_STYLE_ASSIGNMENT (( #185 ) ) ;
#170 = CIRCLE ( 'NONE', #27, 10.49999999999999822 ) ;
#171 = LINE ( 'NONE', #190, #147 ) ;
#172 = DIRECTION ( 'NONE',  ( 0.000000000000000000, 0.000000000000000000, -1.000000000000000000 ) ) ;
#173 = CIRCLE ( 'NONE', #113, 6.499999999999999112 ) ;
#174 = ORIENTED_EDGE ( 'NONE', *, *, #46, .F. ) ;
#175 = ORIENTED_EDGE ( 'NONE', *, *, #24, .T. ) ;
#176 =( GEOMETRIC_REPRESENTATION_CONTEXT ( 3 ) GLOBAL_UNCERTAINTY_ASSIGNED_CONTEXT ( ( #203 ) ) GLOBAL_UNIT_ASSIGNED_CONTEXT ( ( #58, #107, #96 ) ) REPRESENTATION_CONTEXT ( 'NONE', 'WORKASPACE' ) );
#177 = ORIENTED_EDGE ( 'NONE', *, *, #212, .T. ) ;
#178 = ORIENTED_EDGE ( 'NONE', *, *, #150, .T. ) ;
#179 = CLOSED_SHELL ( 'NONE', ( #40, #84, #20, #10, #161, #81 ) ) ;
#180 = AXIS2_PLACEMENT_3D ( 'NONE', #16, #101, #68 ) ;
#181 = CARTESIAN_POINT ( 'NONE',  ( -8.673617379884035472E-16, 0.000000000000000000, -10.49999999999999822 ) ) ;
#182 = DIRECTION ( 'NONE',  ( 1.000000000000000000, -0.000000000000000000, -0.000000000000000000 ) ) ;
#183 = DIRECTION ( 'NONE',  ( 0.000000000000000000, 0.000000000000000000, -1.000000000000000000 ) ) ;
#184 = DIRECTION ( 'NONE',  ( 0.000000000000000000, 0.000000000000000000, -1.000000000000000000 ) ) ;
#185 = SURFACE_STYLE_USAGE ( .BOTH. , #198 ) ;
#186 =( LENGTH_UNIT ( ) NAMED_UNIT ( * ) SI_UNIT ( .MILLI., .METRE. ) );
#187 = PRESENTATION_STYLE_ASSIGNMENT (( #62 ) ) ;
#188 = DIRECTION ( 'NONE',  ( 1.000000000000000000, -0.000000000000000000, -0.000000000000000000 ) ) ;
#189 = CIRCLE ( 'NONE', #98, 10.49999999999999822 ) ;
#190 = CARTESIAN_POINT ( 'NONE',  ( 7.206746031746035897, 0.000000000000000000, -6.499999999999999112 ) ) ;
#191 = CIRCLE ( 'NONE', #164, 10.49999999999999822 ) ;
#192 = VERTEX_POINT ( 'NONE', #158 ) ;
#193 = AXIS2_PLACEMENT_3D ( 'NONE', #17, #4, #214 ) ;
#194 = CARTESIAN_POINT ( 'NONE',  ( -0.8999999999999998002, 0.000000000000000000, 0.000000000000000000 ) ) ;
#195 = EDGE_CURVE ( 'NONE', #149, #146, #26, .T. ) ;
#196 = ORIENTED_EDGE ( 'NONE', *, *, #195, .T. ) ;
#197 = CYLINDRICAL_SURFACE ( 'NONE', #114, 6.499999999999999112 ) ;
#198 = SURFACE_SIDE_STYLE ('',( #137 ) ) ;
#199 = APPLICATION_CONTEXT ( 'automotive_design' ) ;
#200 = DIRECTION ( 'NONE',  ( 0.000000000000000000, 0.000000000000000000, -1.000000000000000000 ) ) ;
#201 = APPLICATION_PROTOCOL_DEFINITION ( 'draft international standard', 'automotive_design', 1998, #73 ) ;
#202 =( NAMED_UNIT ( * ) SI_UNIT ( $, .STERADIAN. ) SOLID_ANGLE_UNIT ( ) );
#203 = UNCERTAINTY_MEASURE_WITH_UNIT (LENGTH_MEASURE( 1.000000000000000082E-05 ), #58, 'distance_accuracy_value', 'NONE');
#204 = DIRECTION ( 'NONE',  ( 0.000000000000000000, 0.000000000000000000, -1.000000000000000000 ) ) ;
#205 = CIRCLE ( 'NONE', #14, 6.499999999999999112 ) ;
#206 = PRESENTATION_LAYER_ASSIGNMENT (  '', '', ( #56 ) ) ;
#207 = ORIENTED_EDGE ( 'NONE', *, *, #120, .F. ) ;
#208 = EDGE_CURVE ( 'NONE', #192, #162, #170, .T. ) ;
#209 = VERTEX_POINT ( 'NONE', #8 ) ;
#210 = ORIENTED_EDGE ( 'NONE', *, *, #78, .T. ) ;
#211 = ORIENTED_EDGE ( 'NONE', *, *, #195, .F. ) ;
#212 = EDGE_CURVE ( 'NONE', #209, #131, #171, .T. ) ;
#213 = PLANE ( 'NONE',  #180 ) ;
#214 = DIRECTION ( 'NONE',  ( 0.000000000000000000, 0.000000000000000000, -1.000000000000000000 ) ) ;
ENDSEC;
END-ISO-10303-21;
