ISO-10303-21;
HEADER;
FILE_DESCRIPTION (( 'STEP AP214' ),
    '1' );
FILE_NAME ('J00.405.016.000.STEP',
    '2024-06-19T08:30:35',
    ( '' ),
    ( '' ),
    'SwSTEP 2.0',
    'SolidWorks 2022',
    '' );
FILE_SCHEMA (( 'AUTOMOTIVE_DESIGN' ));
ENDSEC;

DATA;
#1 = CIRCLE ( 'NONE', #196, 17.00000000000000711 ) ;
#2 =( LENGTH_UNIT ( ) NAMED_UNIT ( * ) SI_UNIT ( .MILLI., .METRE. ) );
#3 = CIRCLE ( 'NONE', #92, 17.00000000000000711 ) ;
#4 = ORIENTED_EDGE ( 'NONE', *, *, #146, .T. ) ;
#5 = ORIENTED_EDGE ( 'NONE', *, *, #169, .T. ) ;
#6 = EDGE_LOOP ( 'NONE', ( #128, #24, #27, #202 ) ) ;
#7 = UNCERTAINTY_MEASURE_WITH_UNIT (LENGTH_MEASURE( 1.000000000000000082E-05 ), #2, 'distance_accuracy_value', 'NONE');
#8 = FACE_OUTER_BOUND ( 'NONE', #6, .T. ) ;
#9 = DIRECTION ( 'NONE',  ( 1.913297951445007129E-16, -2.220446049250314067E-16, -1.000000000000000000 ) ) ;
#10 = AXIS2_PLACEMENT_3D ( 'NONE', #71, #120, #183 ) ;
#11 = DIRECTION ( 'NONE',  ( 1.913297951445007129E-16, -2.220446049250314067E-16, -1.000000000000000000 ) ) ;
#12 = PRODUCT_DEFINITION_SHAPE ( 'NONE', 'NONE',  #86 ) ;
#13 = CARTESIAN_POINT ( 'NONE',  ( -1.800000000000023803, 17.00000000000000000, 1.734723475976807094E-15 ) ) ;
#14 = CARTESIAN_POINT ( 'NONE',  ( -1.800000000000010036, -2.775557561562891351E-14, 0.000000000000000000 ) ) ;
#15 = PLANE ( 'NONE',  #213 ) ;
#16 = PRESENTATION_LAYER_ASSIGNMENT (  '', '', ( #108 ) ) ;
#17 = EDGE_CURVE ( 'NONE', #154, #93, #81, .T. ) ;
#18 = SURFACE_STYLE_FILL_AREA ( #55 ) ;
#19 =( NAMED_UNIT ( * ) SI_UNIT ( $, .STERADIAN. ) SOLID_ANGLE_UNIT ( ) );
#20 = MECHANICAL_DESIGN_GEOMETRIC_PRESENTATION_REPRESENTATION (  '', ( #108 ), #141 ) ;
#21 = ADVANCED_FACE ( 'NONE', ( #206 ), #189, .T. ) ;
#22 = ORIENTED_EDGE ( 'NONE', *, *, #99, .F. ) ;
#23 = PRODUCT_DEFINITION_FORMATION_WITH_SPECIFIED_SOURCE ( 'ANY', '', #168, .NOT_KNOWN. ) ;
#24 = ORIENTED_EDGE ( 'NONE', *, *, #200, .T. ) ;
#25 = ADVANCED_FACE ( 'NONE', ( #61 ), #109, .T. ) ;
#26 = DIRECTION ( 'NONE',  ( 2.040851148208007998E-16, -2.220446049250314560E-16, -1.000000000000000000 ) ) ;
#27 = ORIENTED_EDGE ( 'NONE', *, *, #160, .T. ) ;
#28 = VECTOR ( 'NONE', #147, 1000.000000000000000 ) ;
#29 = CARTESIAN_POINT ( 'NONE',  ( -2.761660063457908651E-15, 5.885461101838505607E-15, 17.00000000000000000 ) ) ;
#30 = DIRECTION ( 'NONE',  ( 1.968741186024066196E-16, -2.220446049250312095E-16, -1.000000000000000000 ) ) ;
#31 = UNCERTAINTY_MEASURE_WITH_UNIT (LENGTH_MEASURE( 1.000000000000000082E-05 ), #103, 'distance_accuracy_value', 'NONE');
#32 = CYLINDRICAL_SURFACE ( 'NONE', #54, 8.500000000000003553 ) ;
#33 = SURFACE_STYLE_FILL_AREA ( #162 ) ;
#34 = DIRECTION ( 'NONE',  ( 1.000000000000000000, -3.552998878918486142E-18, -2.457196376734882559E-16 ) ) ;
#35 = COLOUR_RGB ( '',0.6470588235294117974, 0.6196078431372549211, 0.5882352941176470784 ) ;
#36 = SHAPE_DEFINITION_REPRESENTATION ( #12, #117 ) ;
#37 = APPLICATION_CONTEXT ( 'automotive_design' ) ;
#38 = AXIS2_PLACEMENT_3D ( 'NONE', #205, #111, #140 ) ;
#39 = CARTESIAN_POINT ( 'NONE',  ( 7.206746031746033232, 5.856657842276036856E-15, 17.00000000000000711 ) ) ;
#40 = AXIS2_PLACEMENT_3D ( 'NONE', #134, #131, #47 ) ;
#41 = DIRECTION ( 'NONE',  ( 2.040851148208007505E-16, -2.220446049250312095E-16, -1.000000000000000000 ) ) ;
#42 = VERTEX_POINT ( 'NONE', #186 ) ;
#43 = CARTESIAN_POINT ( 'NONE',  ( 7.206746031746035897, 0.000000000000000000, 0.000000000000000000 ) ) ;
#44 = COLOUR_RGB ( '',0.6470588235294117974, 0.6196078431372549211, 0.5882352941176470784 ) ;
#45 = EDGE_CURVE ( 'NONE', #59, #127, #105, .T. ) ;
#46 = ORIENTED_EDGE ( 'NONE', *, *, #169, .F. ) ;
#47 = DIRECTION ( 'NONE',  ( 2.040851148208007505E-16, -2.220446049250312095E-16, -1.000000000000000000 ) ) ;
#48 = CARTESIAN_POINT ( 'NONE',  ( -6.938893903907228378E-15, 0.000000000000000000, 0.000000000000000000 ) ) ;
#49 = EDGE_CURVE ( 'NONE', #174, #59, #60, .T. ) ;
#50 = DIRECTION ( 'NONE',  ( 1.968741186024066196E-16, -2.220446049250312095E-16, -1.000000000000000000 ) ) ;
#51 = CARTESIAN_POINT ( 'NONE',  ( 7.206746031746035897, 0.000000000000000000, 0.000000000000000000 ) ) ;
#52 = DIRECTION ( 'NONE',  ( 1.000000000000000000, -3.552998878918486142E-18, -2.457196376734882559E-16 ) ) ;
#53 =( LENGTH_UNIT ( ) NAMED_UNIT ( * ) SI_UNIT ( .MILLI., .METRE. ) );
#54 = AXIS2_PLACEMENT_3D ( 'NONE', #51, #34, #69 ) ;
#55 = FILL_AREA_STYLE ('',( #170 ) ) ;
#56 =( NAMED_UNIT ( * ) SI_UNIT ( $, .STERADIAN. ) SOLID_ANGLE_UNIT ( ) );
#57 = AXIS2_PLACEMENT_3D ( 'NONE', #198, #179, #50 ) ;
#58 = DIRECTION ( 'NONE',  ( 1.000000000000000000, -3.552998878918486142E-18, -2.457196376734882559E-16 ) ) ;
#59 = VERTEX_POINT ( 'NONE', #29 ) ;
#60 = LINE ( 'NONE', #39, #112 ) ;
#61 = FACE_OUTER_BOUND ( 'NONE', #113, .T. ) ;
#62 = ORIENTED_EDGE ( 'NONE', *, *, #17, .T. ) ;
#63 = MECHANICAL_DESIGN_GEOMETRIC_PRESENTATION_REPRESENTATION (  '', ( #153 ), #121 ) ;
#64 = FACE_BOUND ( 'NONE', #139, .T. ) ;
#65 = ADVANCED_FACE ( 'NONE', ( #8 ), #32, .F. ) ;
#66 = CARTESIAN_POINT ( 'NONE',  ( -1.800000000000010036, -2.775557561562891351E-14, 0.000000000000000000 ) ) ;
#67 = DIRECTION ( 'NONE',  ( 1.000000000000000000, -3.552998878918486142E-18, -2.457196376734882559E-16 ) ) ;
#68 = PLANE ( 'NONE',  #151 ) ;
#69 = DIRECTION ( 'NONE',  ( 2.040851148208007505E-16, -2.220446049250312095E-16, -1.000000000000000000 ) ) ;
#70 = EDGE_CURVE ( 'NONE', #93, #95, #210, .T. ) ;
#71 = CARTESIAN_POINT ( 'NONE',  ( 0.000000000000000000, 0.000000000000000000, 0.000000000000000000 ) ) ;
#72 = CLOSED_SHELL ( 'NONE', ( #25, #65, #135, #124, #21, #137 ) ) ;
#73 = SURFACE_SIDE_STYLE ('',( #18 ) ) ;
#74 = EDGE_CURVE ( 'NONE', #127, #59, #1, .T. ) ;
#75 = CARTESIAN_POINT ( 'NONE',  ( -1.800000000000010036, -2.775557561562891351E-14, 0.000000000000000000 ) ) ;
#76 = ORIENTED_EDGE ( 'NONE', *, *, #49, .F. ) ;
#77 = ORIENTED_EDGE ( 'NONE', *, *, #150, .F. ) ;
#78 = ORIENTED_EDGE ( 'NONE', *, *, #200, .F. ) ;
#79 = ORIENTED_EDGE ( 'NONE', *, *, #150, .T. ) ;
#80 = FILL_AREA_STYLE_COLOUR ( '', #35 ) ;
#81 = CIRCLE ( 'NONE', #116, 8.500000000000001776 ) ;
#82 = CARTESIAN_POINT ( 'NONE',  ( 7.206746031746035008, 2.928328921138018428E-15, 8.500000000000003553 ) ) ;
#83 = CARTESIAN_POINT ( 'NONE',  ( 0.000000000000000000, 8.499999999999992895, 1.214306433183764966E-14 ) ) ;
#84 = DIRECTION ( 'NONE',  ( 1.968741186024065949E-16, -2.220446049250312095E-16, -1.000000000000000000 ) ) ;
#85 = CYLINDRICAL_SURFACE ( 'NONE', #40, 8.500000000000003553 ) ;
#86 = PRODUCT_DEFINITION ( 'UNKNOWN', '', #23, #192 ) ;
#87 = APPLICATION_PROTOCOL_DEFINITION ( 'draft international standard', 'automotive_design', 1998, #37 ) ;
#88 = AXIS2_PLACEMENT_3D ( 'NONE', #14, #148, #11 ) ;
#89 =( NAMED_UNIT ( * ) PLANE_ANGLE_UNIT ( ) SI_UNIT ( $, .RADIAN. ) );
#90 = SURFACE_STYLE_USAGE ( .BOTH. , #73 ) ;
#91 = ORIENTED_EDGE ( 'NONE', *, *, #74, .F. ) ;
#92 = AXIS2_PLACEMENT_3D ( 'NONE', #66, #98, #9 ) ;
#93 = VERTEX_POINT ( 'NONE', #208 ) ;
#94 = DIRECTION ( 'NONE',  ( 2.040851148208007505E-16, -2.220446049250312095E-16, -1.000000000000000000 ) ) ;
#95 = VERTEX_POINT ( 'NONE', #194 ) ;
#96 = CIRCLE ( 'NONE', #88, 17.00000000000000711 ) ;
#97 = ORIENTED_EDGE ( 'NONE', *, *, #99, .T. ) ;
#98 = DIRECTION ( 'NONE',  ( 1.000000000000000000, -3.552998878918486142E-18, -2.457196376734882559E-16 ) ) ;
#99 = EDGE_CURVE ( 'NONE', #174, #42, #96, .T. ) ;
#100 = DIRECTION ( 'NONE',  ( 1.000000000000000000, -3.552998878918486142E-18, -2.457196376734882559E-16 ) ) ;
#101 = AXIS2_PLACEMENT_3D ( 'NONE', #149, #52, #182 ) ;
#102 = SURFACE_SIDE_STYLE ('',( #33 ) ) ;
#103 =( LENGTH_UNIT ( ) NAMED_UNIT ( * ) SI_UNIT ( .MILLI., .METRE. ) );
#104 = DIRECTION ( 'NONE',  ( 1.968741186024066196E-16, -2.220446049250312095E-16, -1.000000000000000000 ) ) ;
#105 = CIRCLE ( 'NONE', #38, 17.00000000000000711 ) ;
#106 =( NAMED_UNIT ( * ) PLANE_ANGLE_UNIT ( ) SI_UNIT ( $, .RADIAN. ) );
#107 = ORIENTED_EDGE ( 'NONE', *, *, #160, .F. ) ;
#108 = STYLED_ITEM ( 'NONE', ( #181 ), #204 ) ;
#109 = CYLINDRICAL_SURFACE ( 'NONE', #132, 17.00000000000000711 ) ;
#110 = EDGE_LOOP ( 'NONE', ( #78, #77, #126, #4 ) ) ;
#111 = DIRECTION ( 'NONE',  ( 1.000000000000000000, -3.552998878918486142E-18, -2.457196376734882559E-16 ) ) ;
#112 = VECTOR ( 'NONE', #172, 1000.000000000000000 ) ;
#113 = EDGE_LOOP ( 'NONE', ( #5, #191, #91, #207 ) ) ;
#114 = CARTESIAN_POINT ( 'NONE',  ( 7.206746031746039449, -3.774758283725532237E-15, -17.00000000000000711 ) ) ;
#115 = CARTESIAN_POINT ( 'NONE',  ( 2.088616920224668935E-15, 2.957132180700487967E-15, 8.500000000000000000 ) ) ;
#116 = AXIS2_PLACEMENT_3D ( 'NONE', #75, #142, #26 ) ;
#117 = ADVANCED_BREP_SHAPE_REPRESENTATION ( 'J00.405.016.000', ( #204, #10 ), #199 ) ;
#118 = CARTESIAN_POINT ( 'NONE',  ( -1.800000000000005818, 5.885461101838498507E-15, 17.00000000000000000 ) ) ;
#119 = LINE ( 'NONE', #82, #175 ) ;
#120 = DIRECTION ( 'NONE',  ( 0.000000000000000000, 0.000000000000000000, 1.000000000000000000 ) ) ;
#121 =( GEOMETRIC_REPRESENTATION_CONTEXT ( 3 ) GLOBAL_UNCERTAINTY_ASSIGNED_CONTEXT ( ( #7 ) ) GLOBAL_UNIT_ASSIGNED_CONTEXT ( ( #2, #122, #19 ) ) REPRESENTATION_CONTEXT ( 'NONE', 'WORKASPACE' ) );
#122 =( NAMED_UNIT ( * ) PLANE_ANGLE_UNIT ( ) SI_UNIT ( $, .RADIAN. ) );
#123 = CIRCLE ( 'NONE', #57, 8.500000000000003553 ) ;
#124 = ADVANCED_FACE ( 'NONE', ( #145, #64 ), #15, .T. ) ;
#125 = ORIENTED_EDGE ( 'NONE', *, *, #45, .F. ) ;
#126 = ORIENTED_EDGE ( 'NONE', *, *, #70, .T. ) ;
#127 = VERTEX_POINT ( 'NONE', #164 ) ;
#128 = ORIENTED_EDGE ( 'NONE', *, *, #17, .F. ) ;
#129 = ORIENTED_EDGE ( 'NONE', *, *, #146, .F. ) ;
#130 = FACE_OUTER_BOUND ( 'NONE', #110, .T. ) ;
#131 = DIRECTION ( 'NONE',  ( 1.000000000000000000, -3.552998878918486142E-18, -2.457196376734882559E-16 ) ) ;
#132 = AXIS2_PLACEMENT_3D ( 'NONE', #43, #58, #94 ) ;
#133 = LINE ( 'NONE', #114, #28 ) ;
#134 = CARTESIAN_POINT ( 'NONE',  ( 7.206746031746035897, 0.000000000000000000, 0.000000000000000000 ) ) ;
#135 = ADVANCED_FACE ( 'NONE', ( #130 ), #85, .F. ) ;
#136 = PRODUCT_CONTEXT ( 'NONE', #37, 'mechanical' ) ;
#137 = ADVANCED_FACE ( 'NONE', ( #197, #212 ), #68, .T. ) ;
#138 = CARTESIAN_POINT ( 'NONE',  ( 7.206746031746035897, 0.000000000000000000, 0.000000000000000000 ) ) ;
#139 = EDGE_LOOP ( 'NONE', ( #129, #107 ) ) ;
#140 = DIRECTION ( 'NONE',  ( 1.968741186024066196E-16, -2.220446049250312095E-16, -1.000000000000000000 ) ) ;
#141 =( GEOMETRIC_REPRESENTATION_CONTEXT ( 3 ) GLOBAL_UNCERTAINTY_ASSIGNED_CONTEXT ( ( #31 ) ) GLOBAL_UNIT_ASSIGNED_CONTEXT ( ( #103, #106, #152 ) ) REPRESENTATION_CONTEXT ( 'NONE', 'WORKASPACE' ) );
#142 = DIRECTION ( 'NONE',  ( 1.000000000000000000, -3.552998878918486142E-18, -2.457196376734882559E-16 ) ) ;
#143 = ORIENTED_EDGE ( 'NONE', *, *, #74, .T. ) ;
#144 = DIRECTION ( 'NONE',  ( 1.000000000000000000, -3.552998878918486142E-18, -2.457196376734882559E-16 ) ) ;
#145 = FACE_OUTER_BOUND ( 'NONE', #158, .T. ) ;
#146 = EDGE_CURVE ( 'NONE', #95, #176, #123, .T. ) ;
#147 = DIRECTION ( 'NONE',  ( 1.000000000000000000, -3.552998878918486142E-18, -2.457196376734882559E-16 ) ) ;
#148 = DIRECTION ( 'NONE',  ( 1.000000000000000000, -3.552998878918486142E-18, -2.457196376734882559E-16 ) ) ;
#149 = CARTESIAN_POINT ( 'NONE',  ( -1.800000000000010036, -2.775557561562891351E-14, 0.000000000000000000 ) ) ;
#150 = EDGE_CURVE ( 'NONE', #93, #154, #187, .T. ) ;
#151 = AXIS2_PLACEMENT_3D ( 'NONE', #13, #195, #161 ) ;
#152 =( NAMED_UNIT ( * ) SI_UNIT ( $, .STERADIAN. ) SOLID_ANGLE_UNIT ( ) );
#153 = STYLED_ITEM ( 'NONE', ( #185 ), #117 ) ;
#154 = VERTEX_POINT ( 'NONE', #178 ) ;
#155 = EDGE_CURVE ( 'NONE', #42, #127, #133, .T. ) ;
#156 = ORIENTED_EDGE ( 'NONE', *, *, #155, .T. ) ;
#157 = DIRECTION ( 'NONE',  ( 1.000000000000000000, -3.552998878918486142E-18, -2.457196376734882559E-16 ) ) ;
#158 = EDGE_LOOP ( 'NONE', ( #143, #188 ) ) ;
#159 = EDGE_LOOP ( 'NONE', ( #79, #62 ) ) ;
#160 = EDGE_CURVE ( 'NONE', #176, #95, #163, .T. ) ;
#161 = DIRECTION ( 'NONE',  ( -1.968741186024065949E-16, 2.220446049250312095E-16, 1.000000000000000000 ) ) ;
#162 = FILL_AREA_STYLE ('',( #80 ) ) ;
#163 = CIRCLE ( 'NONE', #171, 8.500000000000003553 ) ;
#164 = CARTESIAN_POINT ( 'NONE',  ( -3.592033887666314563E-15, -3.774758283725532237E-15, -17.00000000000000711 ) ) ;
#165 = CARTESIAN_POINT ( 'NONE',  ( 7.206746031746037673, -1.887379141862766119E-15, -8.500000000000003553 ) ) ;
#166 = DIRECTION ( 'NONE',  ( 1.000000000000000000, -3.552998878918387535E-18, 1.968741186024065949E-16 ) ) ;
#167 = VECTOR ( 'NONE', #144, 1000.000000000000000 ) ;
#168 = PRODUCT ( 'J00.405.016.000', 'J00.405.016.000', '', ( #136 ) ) ;
#169 = EDGE_CURVE ( 'NONE', #42, #174, #3, .T. ) ;
#170 = FILL_AREA_STYLE_COLOUR ( '', #44 ) ;
#171 = AXIS2_PLACEMENT_3D ( 'NONE', #214, #193, #30 ) ;
#172 = DIRECTION ( 'NONE',  ( 1.000000000000000000, -3.552998878918486142E-18, -2.457196376734882559E-16 ) ) ;
#173 = EDGE_LOOP ( 'NONE', ( #46, #22 ) ) ;
#174 = VERTEX_POINT ( 'NONE', #118 ) ;
#175 = VECTOR ( 'NONE', #100, 1000.000000000000000 ) ;
#176 = VERTEX_POINT ( 'NONE', #115 ) ;
#177 = UNCERTAINTY_MEASURE_WITH_UNIT (LENGTH_MEASURE( 1.000000000000000082E-05 ), #53, 'distance_accuracy_value', 'NONE');
#178 = CARTESIAN_POINT ( 'NONE',  ( -1.800000000000007816, 2.957132180700470218E-15, 8.499999999999998224 ) ) ;
#179 = DIRECTION ( 'NONE',  ( 1.000000000000000000, -3.552998878918486142E-18, -2.457196376734882559E-16 ) ) ;
#180 = PRODUCT_RELATED_PRODUCT_CATEGORY ( 'part', '', ( #168 ) ) ;
#181 = PRESENTATION_STYLE_ASSIGNMENT (( #209 ) ) ;
#182 = DIRECTION ( 'NONE',  ( 2.040851148208007998E-16, -2.220446049250314560E-16, -1.000000000000000000 ) ) ;
#183 = DIRECTION ( 'NONE',  ( 1.000000000000000000, 0.000000000000000000, 0.000000000000000000 ) ) ;
#184 = APPLICATION_PROTOCOL_DEFINITION ( 'draft international standard', 'automotive_design', 1998, #211 ) ;
#185 = PRESENTATION_STYLE_ASSIGNMENT (( #90 ) ) ;
#186 = CARTESIAN_POINT ( 'NONE',  ( -1.800000000000006706, -3.153033389935445206E-14, -17.00000000000000711 ) ) ;
#187 = CIRCLE ( 'NONE', #101, 8.500000000000001776 ) ;
#188 = ORIENTED_EDGE ( 'NONE', *, *, #45, .T. ) ;
#189 = CYLINDRICAL_SURFACE ( 'NONE', #203, 17.00000000000000711 ) ;
#190 = PRESENTATION_LAYER_ASSIGNMENT (  '', '', ( #153 ) ) ;
#191 = ORIENTED_EDGE ( 'NONE', *, *, #49, .T. ) ;
#192 = PRODUCT_DEFINITION_CONTEXT ( 'detailed design', #211, 'design' ) ;
#193 = DIRECTION ( 'NONE',  ( 1.000000000000000000, -3.552998878918486142E-18, -2.457196376734882559E-16 ) ) ;
#194 = CARTESIAN_POINT ( 'NONE',  ( 1.673430008120456907E-15, -1.887379141862766119E-15, -8.500000000000003553 ) ) ;
#195 = DIRECTION ( 'NONE',  ( -1.000000000000000000, 3.552998878918387535E-18, -1.968741186024065949E-16 ) ) ;
#196 = AXIS2_PLACEMENT_3D ( 'NONE', #48, #67, #104 ) ;
#197 = FACE_BOUND ( 'NONE', #159, .T. ) ;
#198 = CARTESIAN_POINT ( 'NONE',  ( 0.000000000000000000, 0.000000000000000000, 0.000000000000000000 ) ) ;
#199 =( GEOMETRIC_REPRESENTATION_CONTEXT ( 3 ) GLOBAL_UNCERTAINTY_ASSIGNED_CONTEXT ( ( #177 ) ) GLOBAL_UNIT_ASSIGNED_CONTEXT ( ( #53, #89, #56 ) ) REPRESENTATION_CONTEXT ( 'NONE', 'WORKASPACE' ) );
#200 = EDGE_CURVE ( 'NONE', #154, #176, #119, .T. ) ;
#201 = EDGE_LOOP ( 'NONE', ( #76, #97, #156, #125 ) ) ;
#202 = ORIENTED_EDGE ( 'NONE', *, *, #70, .F. ) ;
#203 = AXIS2_PLACEMENT_3D ( 'NONE', #138, #157, #41 ) ;
#204 = MANIFOLD_SOLID_BREP ( 'Rotation1', #72 ) ;
#205 = CARTESIAN_POINT ( 'NONE',  ( -6.938893903907228378E-15, 0.000000000000000000, 0.000000000000000000 ) ) ;
#206 = FACE_OUTER_BOUND ( 'NONE', #201, .T. ) ;
#207 = ORIENTED_EDGE ( 'NONE', *, *, #155, .F. ) ;
#208 = CARTESIAN_POINT ( 'NONE',  ( -1.800000000000008260, -2.964295475749167963E-14, -8.500000000000001776 ) ) ;
#209 = SURFACE_STYLE_USAGE ( .BOTH. , #102 ) ;
#210 = LINE ( 'NONE', #165, #167 ) ;
#211 = APPLICATION_CONTEXT ( 'automotive_design' ) ;
#212 = FACE_OUTER_BOUND ( 'NONE', #173, .T. ) ;
#213 = AXIS2_PLACEMENT_3D ( 'NONE', #83, #166, #84 ) ;
#214 = CARTESIAN_POINT ( 'NONE',  ( 0.000000000000000000, 0.000000000000000000, 0.000000000000000000 ) ) ;
ENDSEC;
END-ISO-10303-21;
