ISO-10303-21;
HEADER;
FILE_DESCRIPTION (( 'STEP AP214' ),
    '1' );
FILE_NAME ('Z00.405.004.000.STEP',
    '2024-06-20T06:40:48',
    ( '' ),
    ( '' ),
    'SwSTEP 2.0',
    'SolidWorks 2022',
    '' );
FILE_SCHEMA (( 'AUTOMOTIVE_DESIGN' ));
ENDSEC;

DATA;
#1 = VECTOR ( 'NONE', #215, 1000.000000000000000 ) ;
#2 = COLOUR_RGB ( '',0.7529411764705882248, 0.7529411764705882248, 0.7529411764705882248 ) ;
#3 = DIRECTION ( 'NONE',  ( 0.000000000000000000, 0.000000000000000000, -1.000000000000000000 ) ) ;
#4 = EDGE_LOOP ( 'NONE', ( #247, #163, #135, #62 ) ) ;
#5 = CARTESIAN_POINT ( 'NONE',  ( -0.5499999999999983791, 0.000000000000000000, 0.000000000000000000 ) ) ;
#6 = CIRCLE ( 'NONE', #216, 2.149999999999999023 ) ;
#7 = CARTESIAN_POINT ( 'NONE',  ( 7.206746031746035897, 0.000000000000000000, -3.599999999999999201 ) ) ;
#8 = CARTESIAN_POINT ( 'NONE',  ( 7.206746031746035897, 0.000000000000000000, 0.000000000000000000 ) ) ;
#9 = DIRECTION ( 'NONE',  ( 1.000000000000000000, -0.000000000000000000, -0.000000000000000000 ) ) ;
#10 = ADVANCED_FACE ( 'NONE', ( #130 ), #23, .F. ) ;
#11 = DIRECTION ( 'NONE',  ( -0.1014897395041340772, 0.000000000000000000, 0.9948365859654453303 ) ) ;
#12 = SURFACE_STYLE_USAGE ( .BOTH. , #244 ) ;
#13 = APPLICATION_PROTOCOL_DEFINITION ( 'draft international standard', 'automotive_design', 1998, #159 ) ;
#14 = CLOSED_SHELL ( 'NONE', ( #25, #219, #89, #10, #246, #98, #110, #140 ) ) ;
#15 = PRESENTATION_LAYER_ASSIGNMENT (  '', '', ( #204 ) ) ;
#16 = LINE ( 'NONE', #72, #51 ) ;
#17 = AXIS2_PLACEMENT_3D ( 'NONE', #243, #9, #65 ) ;
#18 = CARTESIAN_POINT ( 'NONE',  ( -0.5499999999999983791, 0.000000000000000000, 0.000000000000000000 ) ) ;
#19 = EDGE_CURVE ( 'NONE', #224, #99, #16, .T. ) ;
#20 = DIRECTION ( 'NONE',  ( 1.000000000000000000, -0.000000000000000000, -0.000000000000000000 ) ) ;
#21 = DIRECTION ( 'NONE',  ( 0.000000000000000000, 0.000000000000000000, -1.000000000000000000 ) ) ;
#22 = COLOUR_RGB ( '',0.7529411764705882248, 0.7529411764705882248, 0.7529411764705882248 ) ;
#23 = CYLINDRICAL_SURFACE ( 'NONE', #142, 2.149999999999999023 ) ;
#24 = CARTESIAN_POINT ( 'NONE',  ( 7.206746031746035897, 0.000000000000000000, 0.000000000000000000 ) ) ;
#25 = ADVANCED_FACE ( 'NONE', ( #38 ), #250, .T. ) ;
#26 = CARTESIAN_POINT ( 'NONE',  ( -0.4020760853018058856, 2.632990618166808249E-16, 2.149999999999999023 ) ) ;
#27 = AXIS2_PLACEMENT_3D ( 'NONE', #211, #44, #212 ) ;
#28 = DIRECTION ( 'NONE',  ( 1.000000000000000000, -0.000000000000000000, -0.000000000000000000 ) ) ;
#29 = DIRECTION ( 'NONE',  ( 0.000000000000000000, 0.000000000000000000, -1.000000000000000000 ) ) ;
#30 = FILL_AREA_STYLE_COLOUR ( '', #2 ) ;
#31 = EDGE_LOOP ( 'NONE', ( #164, #194, #252, #42 ) ) ;
#32 =( NAMED_UNIT ( * ) SI_UNIT ( $, .STERADIAN. ) SOLID_ANGLE_UNIT ( ) );
#33 = ORIENTED_EDGE ( 'NONE', *, *, #122, .T. ) ;
#34 = CIRCLE ( 'NONE', #166, 3.599999999999998757 ) ;
#35 = EDGE_CURVE ( 'NONE', #167, #109, #202, .T. ) ;
#36 = ORIENTED_EDGE ( 'NONE', *, *, #35, .F. ) ;
#37 = PRODUCT_DEFINITION_SHAPE ( 'NONE', 'NONE',  #190 ) ;
#38 = FACE_OUTER_BOUND ( 'NONE', #31, .T. ) ;
#39 = EDGE_CURVE ( 'NONE', #70, #224, #151, .T. ) ;
#40 = DIRECTION ( 'NONE',  ( 0.000000000000000000, 0.000000000000000000, -1.000000000000000000 ) ) ;
#41 = EDGE_LOOP ( 'NONE', ( #161, #182, #205, #79 ) ) ;
#42 = ORIENTED_EDGE ( 'NONE', *, *, #122, .F. ) ;
#43 = CARTESIAN_POINT ( 'NONE',  ( 0.000000000000000000, 0.000000000000000000, 0.000000000000000000 ) ) ;
#44 = DIRECTION ( 'NONE',  ( -1.000000000000000000, 0.000000000000000000, 0.000000000000000000 ) ) ;
#45 = CYLINDRICAL_SURFACE ( 'NONE', #112, 3.599999999999999201 ) ;
#46 = PRODUCT_RELATED_PRODUCT_CATEGORY ( 'part', '', ( #210 ) ) ;
#47 = AXIS2_PLACEMENT_3D ( 'NONE', #8, #66, #123 ) ;
#48 = DIRECTION ( 'NONE',  ( 1.000000000000000000, -0.000000000000000000, -0.000000000000000000 ) ) ;
#49 = LINE ( 'NONE', #64, #69 ) ;
#50 =( LENGTH_UNIT ( ) NAMED_UNIT ( * ) SI_UNIT ( .MILLI., .METRE. ) );
#51 = VECTOR ( 'NONE', #254, 1000.000000000000227 ) ;
#52 = ORIENTED_EDGE ( 'NONE', *, *, #197, .F. ) ;
#53 = UNCERTAINTY_MEASURE_WITH_UNIT (LENGTH_MEASURE( 1.000000000000000082E-05 ), #50, 'distance_accuracy_value', 'NONE');
#54 = EDGE_CURVE ( 'NONE', #70, #228, #6, .T. ) ;
#55 = AXIS2_PLACEMENT_3D ( 'NONE', #154, #82, #105 ) ;
#56 = EDGE_LOOP ( 'NONE', ( #77, #145, #129, #187 ) ) ;
#57 = DIRECTION ( 'NONE',  ( 1.000000000000000000, -0.000000000000000000, -0.000000000000000000 ) ) ;
#58 = CONICAL_SURFACE ( 'NONE', #55, 2.149999999999999467, 1.469131547868511856 ) ;
#59 = PRODUCT_DEFINITION_FORMATION_WITH_SPECIFIED_SOURCE ( 'ANY', '', #210, .NOT_KNOWN. ) ;
#60 = DIRECTION ( 'NONE',  ( 1.000000000000000000, -0.000000000000000000, -0.000000000000000000 ) ) ;
#61 = FACE_OUTER_BOUND ( 'NONE', #150, .T. ) ;
#62 = ORIENTED_EDGE ( 'NONE', *, *, #170, .F. ) ;
#63 = CARTESIAN_POINT ( 'NONE',  ( 7.206746031746035897, 0.000000000000000000, 0.000000000000000000 ) ) ;
#64 = CARTESIAN_POINT ( 'NONE',  ( -0.5499999999999983791, 0.000000000000000000, 3.599999999999998757 ) ) ;
#65 = DIRECTION ( 'NONE',  ( 0.000000000000000000, 0.000000000000000000, -1.000000000000000000 ) ) ;
#66 = DIRECTION ( 'NONE',  ( 1.000000000000000000, -0.000000000000000000, -0.000000000000000000 ) ) ;
#67 = DIRECTION ( 'NONE',  ( 1.000000000000000000, -0.000000000000000000, -0.000000000000000000 ) ) ;
#68 = DIRECTION ( 'NONE',  ( 1.000000000000000000, 0.000000000000000000, 0.000000000000000000 ) ) ;
#69 = VECTOR ( 'NONE', #102, 1000.000000000000000 ) ;
#70 = VERTEX_POINT ( 'NONE', #74 ) ;
#71 = ORIENTED_EDGE ( 'NONE', *, *, #174, .T. ) ;
#72 = CARTESIAN_POINT ( 'NONE',  ( 0.000000000000000000, 2.632990618166808742E-16, -2.149999999999999467 ) ) ;
#73 = ORIENTED_EDGE ( 'NONE', *, *, #170, .T. ) ;
#74 = CARTESIAN_POINT ( 'NONE',  ( -0.4020760853018058856, 0.000000000000000000, -2.149999999999999023 ) ) ;
#75 = AXIS2_PLACEMENT_3D ( 'NONE', #111, #189, #169 ) ;
#76 = MECHANICAL_DESIGN_GEOMETRIC_PRESENTATION_REPRESENTATION (  '', ( #204 ), #136 ) ;
#77 = ORIENTED_EDGE ( 'NONE', *, *, #174, .F. ) ;
#78 = EDGE_CURVE ( 'NONE', #109, #167, #34, .T. ) ;
#79 = ORIENTED_EDGE ( 'NONE', *, *, #39, .F. ) ;
#80 = FACE_OUTER_BOUND ( 'NONE', #94, .T. ) ;
#81 = DIRECTION ( 'NONE',  ( -1.000000000000000000, 0.000000000000000000, 0.000000000000000000 ) ) ;
#82 = DIRECTION ( 'NONE',  ( -1.000000000000000000, 0.000000000000000000, 0.000000000000000000 ) ) ;
#83 = DIRECTION ( 'NONE',  ( 1.000000000000000000, -0.000000000000000000, -0.000000000000000000 ) ) ;
#84 = CIRCLE ( 'NONE', #17, 3.599999999999999201 ) ;
#85 = CARTESIAN_POINT ( 'NONE',  ( -0.1479239146981933817, 0.000000000000000000, 0.000000000000000000 ) ) ;
#86 = EDGE_CURVE ( 'NONE', #228, #70, #178, .T. ) ;
#87 = VERTEX_POINT ( 'NONE', #234 ) ;
#88 = APPLICATION_PROTOCOL_DEFINITION ( 'draft international standard', 'automotive_design', 1998, #168 ) ;
#89 = ADVANCED_FACE ( 'NONE', ( #61 ), #90, .F. ) ;
#90 = CONICAL_SURFACE ( 'NONE', #27, 3.599999999999998757, 1.469131547868512300 ) ;
#91 = SHAPE_DEFINITION_REPRESENTATION ( #37, #127 ) ;
#92 = EDGE_LOOP ( 'NONE', ( #209, #115, #148, #152 ) ) ;
#93 = SURFACE_STYLE_FILL_AREA ( #222 ) ;
#94 = EDGE_LOOP ( 'NONE', ( #180, #206, #33, #73 ) ) ;
#95 = AXIS2_PLACEMENT_3D ( 'NONE', #18, #57, #40 ) ;
#96 = VERTEX_POINT ( 'NONE', #160 ) ;
#97 = EDGE_LOOP ( 'NONE', ( #52, #133, #230, #235 ) ) ;
#98 = ADVANCED_FACE ( 'NONE', ( #237 ), #155, .F. ) ;
#99 = VERTEX_POINT ( 'NONE', #139 ) ;
#100 = DIRECTION ( 'NONE',  ( 1.000000000000000000, -0.000000000000000000, -0.000000000000000000 ) ) ;
#101 = DIRECTION ( 'NONE',  ( 0.000000000000000000, 0.000000000000000000, -1.000000000000000000 ) ) ;
#102 = DIRECTION ( 'NONE',  ( -0.1014897395041336331, 0.000000000000000000, 0.9948365859654454413 ) ) ;
#103 = PRESENTATION_LAYER_ASSIGNMENT (  '', '', ( #207 ) ) ;
#104 = CARTESIAN_POINT ( 'NONE',  ( -0.5499999999999983791, 0.000000000000000000, 3.599999999999998757 ) ) ;
#105 = DIRECTION ( 'NONE',  ( 0.000000000000000000, 0.000000000000000000, 1.000000000000000000 ) ) ;
#106 = LINE ( 'NONE', #137, #128 ) ;
#107 =( LENGTH_UNIT ( ) NAMED_UNIT ( * ) SI_UNIT ( .MILLI., .METRE. ) );
#108 = PRESENTATION_STYLE_ASSIGNMENT (( #12 ) ) ;
#109 = VERTEX_POINT ( 'NONE', #214 ) ;
#110 = ADVANCED_FACE ( 'NONE', ( #175 ), #45, .T. ) ;
#111 = CARTESIAN_POINT ( 'NONE',  ( 0.000000000000000000, 0.000000000000000000, 0.000000000000000000 ) ) ;
#112 = AXIS2_PLACEMENT_3D ( 'NONE', #63, #239, #29 ) ;
#113 = CARTESIAN_POINT ( 'NONE',  ( 7.206746031746035897, 0.000000000000000000, -2.149999999999999023 ) ) ;
#114 = CARTESIAN_POINT ( 'NONE',  ( -0.4020760853018058856, 0.000000000000000000, 0.000000000000000000 ) ) ;
#115 = ORIENTED_EDGE ( 'NONE', *, *, #225, .T. ) ;
#116 = AXIS2_PLACEMENT_3D ( 'NONE', #43, #28, #121 ) ;
#117 = DIRECTION ( 'NONE',  ( 0.000000000000000000, 0.000000000000000000, -1.000000000000000000 ) ) ;
#118 = DIRECTION ( 'NONE',  ( 0.000000000000000000, 0.000000000000000000, 1.000000000000000000 ) ) ;
#119 = LINE ( 'NONE', #157, #1 ) ;
#120 = CIRCLE ( 'NONE', #188, 2.149999999999999467 ) ;
#121 = DIRECTION ( 'NONE',  ( 0.000000000000000000, 0.000000000000000000, -1.000000000000000000 ) ) ;
#122 = EDGE_CURVE ( 'NONE', #87, #96, #141, .T. ) ;
#123 = DIRECTION ( 'NONE',  ( 0.000000000000000000, 0.000000000000000000, -1.000000000000000000 ) ) ;
#124 =( NAMED_UNIT ( * ) SI_UNIT ( $, .STERADIAN. ) SOLID_ANGLE_UNIT ( ) );
#125 = AXIS2_PLACEMENT_3D ( 'NONE', #5, #81, #118 ) ;
#126 = SURFACE_SIDE_STYLE ('',( #93 ) ) ;
#127 = ADVANCED_BREP_SHAPE_REPRESENTATION ( 'Z00.405.004.000', ( #253, #217 ), #231 ) ;
#128 = VECTOR ( 'NONE', #195, 1000.000000000000000 ) ;
#129 = ORIENTED_EDGE ( 'NONE', *, *, #233, .T. ) ;
#130 = FACE_OUTER_BOUND ( 'NONE', #41, .T. ) ;
#131 = VECTOR ( 'NONE', #240, 1000.000000000000000 ) ;
#132 = EDGE_CURVE ( 'NONE', #99, #96, #84, .T. ) ;
#133 = ORIENTED_EDGE ( 'NONE', *, *, #54, .F. ) ;
#134 = DIRECTION ( 'NONE',  ( 0.000000000000000000, 0.000000000000000000, -1.000000000000000000 ) ) ;
#135 = ORIENTED_EDGE ( 'NONE', *, *, #242, .T. ) ;
#136 =( GEOMETRIC_REPRESENTATION_CONTEXT ( 3 ) GLOBAL_UNCERTAINTY_ASSIGNED_CONTEXT ( ( #53 ) ) GLOBAL_UNIT_ASSIGNED_CONTEXT ( ( #50, #179, #226 ) ) REPRESENTATION_CONTEXT ( 'NONE', 'WORKASPACE' ) );
#137 = CARTESIAN_POINT ( 'NONE',  ( 7.206746031746035897, 2.632990618166808249E-16, 2.149999999999999023 ) ) ;
#138 = CYLINDRICAL_SURFACE ( 'NONE', #47, 2.149999999999999023 ) ;
#139 = CARTESIAN_POINT ( 'NONE',  ( -0.1479239146981933817, 0.000000000000000000, -3.599999999999999201 ) ) ;
#140 = ADVANCED_FACE ( 'NONE', ( #80 ), #58, .T. ) ;
#141 = LINE ( 'NONE', #198, #241 ) ;
#142 = AXIS2_PLACEMENT_3D ( 'NONE', #251, #100, #208 ) ;
#143 =( NAMED_UNIT ( * ) PLANE_ANGLE_UNIT ( ) SI_UNIT ( $, .RADIAN. ) );
#144 = EDGE_CURVE ( 'NONE', #87, #224, #120, .T. ) ;
#145 = ORIENTED_EDGE ( 'NONE', *, *, #54, .T. ) ;
#146 = PRODUCT_CONTEXT ( 'NONE', #159, 'mechanical' ) ;
#147 =( GEOMETRIC_REPRESENTATION_CONTEXT ( 3 ) GLOBAL_UNCERTAINTY_ASSIGNED_CONTEXT ( ( #221 ) ) GLOBAL_UNIT_ASSIGNED_CONTEXT ( ( #107, #143, #124 ) ) REPRESENTATION_CONTEXT ( 'NONE', 'WORKASPACE' ) );
#148 = ORIENTED_EDGE ( 'NONE', *, *, #132, .F. ) ;
#149 = ORIENTED_EDGE ( 'NONE', *, *, #86, .T. ) ;
#150 = EDGE_LOOP ( 'NONE', ( #149, #71, #36, #153 ) ) ;
#151 = LINE ( 'NONE', #113, #248 ) ;
#152 = ORIENTED_EDGE ( 'NONE', *, *, #242, .F. ) ;
#153 = ORIENTED_EDGE ( 'NONE', *, *, #233, .F. ) ;
#154 = CARTESIAN_POINT ( 'NONE',  ( 0.000000000000000000, 0.000000000000000000, 0.000000000000000000 ) ) ;
#155 = CONICAL_SURFACE ( 'NONE', #125, 3.599999999999998757, 1.469131547868512300 ) ;
#156 = CARTESIAN_POINT ( 'NONE',  ( 7.206746031746035897, 4.408728476930470165E-16, 3.599999999999999201 ) ) ;
#157 = CARTESIAN_POINT ( 'NONE',  ( -0.5499999999999983791, 4.408728476930470165E-16, -3.599999999999998757 ) ) ;
#158 = CARTESIAN_POINT ( 'NONE',  ( 0.000000000000000000, 0.000000000000000000, -2.149999999999999467 ) ) ;
#159 = APPLICATION_CONTEXT ( 'automotive_design' ) ;
#160 = CARTESIAN_POINT ( 'NONE',  ( -0.1479239146981933817, 4.408728476930470165E-16, 3.599999999999999201 ) ) ;
#161 = ORIENTED_EDGE ( 'NONE', *, *, #86, .F. ) ;
#162 =( LENGTH_UNIT ( ) NAMED_UNIT ( * ) SI_UNIT ( .MILLI., .METRE. ) );
#163 = ORIENTED_EDGE ( 'NONE', *, *, #35, .T. ) ;
#164 = ORIENTED_EDGE ( 'NONE', *, *, #184, .F. ) ;
#165 = DIRECTION ( 'NONE',  ( 1.000000000000000000, -0.000000000000000000, -0.000000000000000000 ) ) ;
#166 = AXIS2_PLACEMENT_3D ( 'NONE', #232, #60, #3 ) ;
#167 = VERTEX_POINT ( 'NONE', #104 ) ;
#168 = APPLICATION_CONTEXT ( 'automotive_design' ) ;
#169 = DIRECTION ( 'NONE',  ( 0.000000000000000000, 0.000000000000000000, 1.000000000000000000 ) ) ;
#170 = EDGE_CURVE ( 'NONE', #96, #99, #227, .T. ) ;
#171 = LINE ( 'NONE', #156, #173 ) ;
#172 = LINE ( 'NONE', #7, #131 ) ;
#173 = VECTOR ( 'NONE', #196, 1000.000000000000000 ) ;
#174 = EDGE_CURVE ( 'NONE', #70, #109, #119, .T. ) ;
#175 = FACE_OUTER_BOUND ( 'NONE', #4, .T. ) ;
#176 = DIRECTION ( 'NONE',  ( 0.000000000000000000, 0.000000000000000000, -1.000000000000000000 ) ) ;
#177 = FILL_AREA_STYLE ('',( #30 ) ) ;
#178 = CIRCLE ( 'NONE', #236, 2.149999999999999023 ) ;
#179 =( NAMED_UNIT ( * ) PLANE_ANGLE_UNIT ( ) SI_UNIT ( $, .RADIAN. ) );
#180 = ORIENTED_EDGE ( 'NONE', *, *, #19, .F. ) ;
#181 = CARTESIAN_POINT ( 'NONE',  ( 0.000000000000000000, 0.000000000000000000, 0.000000000000000000 ) ) ;
#182 = ORIENTED_EDGE ( 'NONE', *, *, #197, .T. ) ;
#183 = AXIS2_PLACEMENT_3D ( 'NONE', #24, #83, #101 ) ;
#184 = EDGE_CURVE ( 'NONE', #224, #87, #223, .T. ) ;
#185 =( NAMED_UNIT ( * ) PLANE_ANGLE_UNIT ( ) SI_UNIT ( $, .RADIAN. ) );
#186 = PRODUCT_DEFINITION_CONTEXT ( 'detailed design', #168, 'design' ) ;
#187 = ORIENTED_EDGE ( 'NONE', *, *, #78, .F. ) ;
#188 = AXIS2_PLACEMENT_3D ( 'NONE', #218, #48, #176 ) ;
#189 = DIRECTION ( 'NONE',  ( -1.000000000000000000, 0.000000000000000000, 0.000000000000000000 ) ) ;
#190 = PRODUCT_DEFINITION ( 'UNKNOWN', '', #59, #186 ) ;
#191 = CARTESIAN_POINT ( 'NONE',  ( -0.4020760853018058856, 0.000000000000000000, 0.000000000000000000 ) ) ;
#192 = DIRECTION ( 'NONE',  ( 1.000000000000000000, -0.000000000000000000, -0.000000000000000000 ) ) ;
#193 = AXIS2_PLACEMENT_3D ( 'NONE', #85, #67, #117 ) ;
#194 = ORIENTED_EDGE ( 'NONE', *, *, #19, .T. ) ;
#195 = DIRECTION ( 'NONE',  ( 1.000000000000000000, -0.000000000000000000, -0.000000000000000000 ) ) ;
#196 = DIRECTION ( 'NONE',  ( 1.000000000000000000, -0.000000000000000000, -0.000000000000000000 ) ) ;
#197 = EDGE_CURVE ( 'NONE', #228, #87, #106, .T. ) ;
#198 = CARTESIAN_POINT ( 'NONE',  ( 0.000000000000000000, 0.000000000000000000, 2.149999999999999467 ) ) ;
#199 = FACE_OUTER_BOUND ( 'NONE', #92, .T. ) ;
#200 = FILL_AREA_STYLE_COLOUR ( '', #22 ) ;
#201 = SURFACE_STYLE_FILL_AREA ( #177 ) ;
#202 = CIRCLE ( 'NONE', #95, 3.599999999999998757 ) ;
#203 = MECHANICAL_DESIGN_GEOMETRIC_PRESENTATION_REPRESENTATION (  '', ( #207 ), #147 ) ;
#204 = STYLED_ITEM ( 'NONE', ( #249 ), #127 ) ;
#205 = ORIENTED_EDGE ( 'NONE', *, *, #144, .T. ) ;
#206 = ORIENTED_EDGE ( 'NONE', *, *, #144, .F. ) ;
#207 = STYLED_ITEM ( 'NONE', ( #108 ), #253 ) ;
#208 = DIRECTION ( 'NONE',  ( 0.000000000000000000, 0.000000000000000000, -1.000000000000000000 ) ) ;
#209 = ORIENTED_EDGE ( 'NONE', *, *, #78, .T. ) ;
#210 = PRODUCT ( 'Z00.405.004.000', 'Z00.405.004.000', '', ( #146 ) ) ;
#211 = CARTESIAN_POINT ( 'NONE',  ( -0.5499999999999983791, 0.000000000000000000, 0.000000000000000000 ) ) ;
#212 = DIRECTION ( 'NONE',  ( 0.000000000000000000, 0.000000000000000000, 1.000000000000000000 ) ) ;
#213 = CYLINDRICAL_SURFACE ( 'NONE', #183, 3.599999999999999201 ) ;
#214 = CARTESIAN_POINT ( 'NONE',  ( -0.5499999999999983791, 4.408728476930470165E-16, -3.599999999999998757 ) ) ;
#215 = DIRECTION ( 'NONE',  ( -0.1014897395041336331, 1.218323440677263481E-16, -0.9948365859654454413 ) ) ;
#216 = AXIS2_PLACEMENT_3D ( 'NONE', #191, #165, #134 ) ;
#217 = AXIS2_PLACEMENT_3D ( 'NONE', #181, #245, #68 ) ;
#218 = CARTESIAN_POINT ( 'NONE',  ( 0.000000000000000000, 0.000000000000000000, 0.000000000000000000 ) ) ;
#219 = ADVANCED_FACE ( 'NONE', ( #199 ), #213, .T. ) ;
#220 = SURFACE_STYLE_USAGE ( .BOTH. , #126 ) ;
#221 = UNCERTAINTY_MEASURE_WITH_UNIT (LENGTH_MEASURE( 1.000000000000000082E-05 ), #107, 'distance_accuracy_value', 'NONE');
#222 = FILL_AREA_STYLE ('',( #200 ) ) ;
#223 = CIRCLE ( 'NONE', #116, 2.149999999999999467 ) ;
#224 = VERTEX_POINT ( 'NONE', #158 ) ;
#225 = EDGE_CURVE ( 'NONE', #167, #96, #171, .T. ) ;
#226 =( NAMED_UNIT ( * ) SI_UNIT ( $, .STERADIAN. ) SOLID_ANGLE_UNIT ( ) );
#227 = CIRCLE ( 'NONE', #193, 3.599999999999999201 ) ;
#228 = VERTEX_POINT ( 'NONE', #26 ) ;
#229 = UNCERTAINTY_MEASURE_WITH_UNIT (LENGTH_MEASURE( 1.000000000000000082E-05 ), #162, 'distance_accuracy_value', 'NONE');
#230 = ORIENTED_EDGE ( 'NONE', *, *, #39, .T. ) ;
#231 =( GEOMETRIC_REPRESENTATION_CONTEXT ( 3 ) GLOBAL_UNCERTAINTY_ASSIGNED_CONTEXT ( ( #229 ) ) GLOBAL_UNIT_ASSIGNED_CONTEXT ( ( #162, #185, #32 ) ) REPRESENTATION_CONTEXT ( 'NONE', 'WORKASPACE' ) );
#232 = CARTESIAN_POINT ( 'NONE',  ( -0.5499999999999983791, 0.000000000000000000, 0.000000000000000000 ) ) ;
#233 = EDGE_CURVE ( 'NONE', #228, #167, #49, .T. ) ;
#234 = CARTESIAN_POINT ( 'NONE',  ( 0.000000000000000000, 2.632990618166808742E-16, 2.149999999999999467 ) ) ;
#235 = ORIENTED_EDGE ( 'NONE', *, *, #184, .T. ) ;
#236 = AXIS2_PLACEMENT_3D ( 'NONE', #114, #192, #21 ) ;
#237 = FACE_OUTER_BOUND ( 'NONE', #56, .T. ) ;
#238 = FACE_OUTER_BOUND ( 'NONE', #97, .T. ) ;
#239 = DIRECTION ( 'NONE',  ( 1.000000000000000000, -0.000000000000000000, -0.000000000000000000 ) ) ;
#240 = DIRECTION ( 'NONE',  ( 1.000000000000000000, -0.000000000000000000, -0.000000000000000000 ) ) ;
#241 = VECTOR ( 'NONE', #11, 1000.000000000000227 ) ;
#242 = EDGE_CURVE ( 'NONE', #109, #99, #172, .T. ) ;
#243 = CARTESIAN_POINT ( 'NONE',  ( -0.1479239146981933817, 0.000000000000000000, 0.000000000000000000 ) ) ;
#244 = SURFACE_SIDE_STYLE ('',( #201 ) ) ;
#245 = DIRECTION ( 'NONE',  ( 0.000000000000000000, 0.000000000000000000, 1.000000000000000000 ) ) ;
#246 = ADVANCED_FACE ( 'NONE', ( #238 ), #138, .F. ) ;
#247 = ORIENTED_EDGE ( 'NONE', *, *, #225, .F. ) ;
#248 = VECTOR ( 'NONE', #20, 1000.000000000000000 ) ;
#249 = PRESENTATION_STYLE_ASSIGNMENT (( #220 ) ) ;
#250 = CONICAL_SURFACE ( 'NONE', #75, 2.149999999999999467, 1.469131547868511856 ) ;
#251 = CARTESIAN_POINT ( 'NONE',  ( 7.206746031746035897, 0.000000000000000000, 0.000000000000000000 ) ) ;
#252 = ORIENTED_EDGE ( 'NONE', *, *, #132, .T. ) ;
#253 = MANIFOLD_SOLID_BREP ( 'Rotation1', #14 ) ;
#254 = DIRECTION ( 'NONE',  ( -0.1014897395041340772, 1.218323440677263234E-16, -0.9948365859654453303 ) ) ;
ENDSEC;
END-ISO-10303-21;
