ISO-10303-21;
HEADER;
FILE_DESCRIPTION (( 'STEP AP214' ),
    '1' );
FILE_NAME ('Z00.405.005.000.STEP',
    '2024-06-20T05:20:16',
    ( '' ),
    ( '' ),
    'SwSTEP 2.0',
    'SolidWorks 2022',
    '' );
FILE_SCHEMA (( 'AUTOMOTIVE_DESIGN' ));
ENDSEC;

DATA;
#1 = VECTOR ( 'NONE', #144, 1000.000000000000227 ) ;
#2 = ADVANCED_FACE ( 'NONE', ( #75 ), #53, .F. ) ;
#3 = EDGE_CURVE ( 'NONE', #24, #110, #160, .T. ) ;
#4 =( GEOMETRIC_REPRESENTATION_CONTEXT ( 3 ) GLOBAL_UNCERTAINTY_ASSIGNED_CONTEXT ( ( #204 ) ) GLOBAL_UNIT_ASSIGNED_CONTEXT ( ( #143, #102, #79 ) ) REPRESENTATION_CONTEXT ( 'NONE', 'WORKASPACE' ) );
#5 = EDGE_CURVE ( 'NONE', #26, #92, #138, .T. ) ;
#6 = ORIENTED_EDGE ( 'NONE', *, *, #130, .F. ) ;
#7 = CARTESIAN_POINT ( 'NONE',  ( -0.6499999999999995781, 0.000000000000000000, 0.000000000000000000 ) ) ;
#8 = CONICAL_SURFACE ( 'NONE', #167, 4.599999999999998757, 1.469760343000857672 ) ;
#9 = VERTEX_POINT ( 'NONE', #157 ) ;
#10 = LINE ( 'NONE', #97, #165 ) ;
#11 = MECHANICAL_DESIGN_GEOMETRIC_PRESENTATION_REPRESENTATION (  '', ( #66 ), #4 ) ;
#12 = DIRECTION ( 'NONE',  ( -1.000000000000000000, 0.000000000000000000, 0.000000000000000000 ) ) ;
#13 = DIRECTION ( 'NONE',  ( 1.000000000000000000, 0.000000000000000000, 0.000000000000000000 ) ) ;
#14 = PRESENTATION_STYLE_ASSIGNMENT (( #194 ) ) ;
#15 = PRODUCT ( 'Z00.405.005.000', 'Z00.405.005.000', '', ( #178 ) ) ;
#16 = ADVANCED_FACE ( 'NONE', ( #154 ), #8, .F. ) ;
#17 = SURFACE_STYLE_FILL_AREA ( #107 ) ;
#18 =( NAMED_UNIT ( * ) SI_UNIT ( $, .STERADIAN. ) SOLID_ANGLE_UNIT ( ) );
#19 = FACE_OUTER_BOUND ( 'NONE', #28, .T. ) ;
#20 = CARTESIAN_POINT ( 'NONE',  ( -0.6499999999999995781, 0.000000000000000000, 0.000000000000000000 ) ) ;
#21 = DIRECTION ( 'NONE',  ( 0.000000000000000000, 0.000000000000000000, -1.000000000000000000 ) ) ;
#22 = CIRCLE ( 'NONE', #225, 4.599999999999997868 ) ;
#23 = EDGE_CURVE ( 'NONE', #9, #110, #22, .T. ) ;
#24 = VERTEX_POINT ( 'NONE', #54 ) ;
#25 = VECTOR ( 'NONE', #123, 1000.000000000000000 ) ;
#26 = VERTEX_POINT ( 'NONE', #248 ) ;
#27 = APPLICATION_CONTEXT ( 'automotive_design' ) ;
#28 = EDGE_LOOP ( 'NONE', ( #73, #114, #89, #193 ) ) ;
#29 = ORIENTED_EDGE ( 'NONE', *, *, #105, .T. ) ;
#30 = CIRCLE ( 'NONE', #147, 4.599999999999998757 ) ;
#31 = EDGE_CURVE ( 'NONE', #110, #9, #234, .T. ) ;
#32 = ORIENTED_EDGE ( 'NONE', *, *, #130, .T. ) ;
#33 = DIRECTION ( 'NONE',  ( 0.000000000000000000, 0.000000000000000000, -1.000000000000000000 ) ) ;
#34 = CIRCLE ( 'NONE', #98, 2.649999999999999023 ) ;
#35 = CYLINDRICAL_SURFACE ( 'NONE', #50, 4.599999999999997868 ) ;
#36 = EDGE_CURVE ( 'NONE', #26, #230, #169, .T. ) ;
#37 = CARTESIAN_POINT ( 'NONE',  ( 0.000000000000000000, 0.000000000000000000, 0.000000000000000000 ) ) ;
#38 = AXIS2_PLACEMENT_3D ( 'NONE', #7, #12, #159 ) ;
#39 = CARTESIAN_POINT ( 'NONE',  ( 0.000000000000000000, 3.245314017740484976E-16, -2.649999999999999023 ) ) ;
#40 = LINE ( 'NONE', #104, #1 ) ;
#41 = CARTESIAN_POINT ( 'NONE',  ( 0.000000000000000000, 0.000000000000000000, 0.000000000000000000 ) ) ;
#42 =( NAMED_UNIT ( * ) SI_UNIT ( $, .STERADIAN. ) SOLID_ANGLE_UNIT ( ) );
#43 = CIRCLE ( 'NONE', #131, 2.649999999999999023 ) ;
#44 = ADVANCED_BREP_SHAPE_REPRESENTATION ( 'Z00.405.005.000', ( #155, #188 ), #246 ) ;
#45 = SURFACE_STYLE_USAGE ( .BOTH. , #146 ) ;
#46 = CARTESIAN_POINT ( 'NONE',  ( -0.6499999999999995781, 0.000000000000000000, 4.599999999999998757 ) ) ;
#47 = FACE_OUTER_BOUND ( 'NONE', #57, .T. ) ;
#48 = ORIENTED_EDGE ( 'NONE', *, *, #5, .T. ) ;
#49 = EDGE_CURVE ( 'NONE', #26, #24, #10, .T. ) ;
#50 = AXIS2_PLACEMENT_3D ( 'NONE', #164, #202, #196 ) ;
#51 = UNCERTAINTY_MEASURE_WITH_UNIT (LENGTH_MEASURE( 1.000000000000000082E-05 ), #220, 'distance_accuracy_value', 'NONE');
#52 = ORIENTED_EDGE ( 'NONE', *, *, #112, .T. ) ;
#53 = CONICAL_SURFACE ( 'NONE', #38, 4.599999999999998757, 1.469760343000857672 ) ;
#54 = CARTESIAN_POINT ( 'NONE',  ( 0.000000000000000000, 3.245314017740484976E-16, 2.649999999999999023 ) ) ;
#55 = AXIS2_PLACEMENT_3D ( 'NONE', #81, #203, #21 ) ;
#56 = ORIENTED_EDGE ( 'NONE', *, *, #185, .T. ) ;
#57 = EDGE_LOOP ( 'NONE', ( #186, #6, #118, #207 ) ) ;
#58 = ORIENTED_EDGE ( 'NONE', *, *, #201, .F. ) ;
#59 = DIRECTION ( 'NONE',  ( 0.000000000000000000, 0.000000000000000000, 1.000000000000000000 ) ) ;
#60 = CARTESIAN_POINT ( 'NONE',  ( -0.6499999999999995781, 0.000000000000000000, 4.599999999999998757 ) ) ;
#61 = CARTESIAN_POINT ( 'NONE',  ( 0.000000000000000000, 0.000000000000000000, 0.000000000000000000 ) ) ;
#62 = CARTESIAN_POINT ( 'NONE',  ( -0.4523066710532073209, 0.000000000000000000, -2.649999999999999023 ) ) ;
#63 =( NAMED_UNIT ( * ) PLANE_ANGLE_UNIT ( ) SI_UNIT ( $, .RADIAN. ) );
#64 = CARTESIAN_POINT ( 'NONE',  ( -0.6499999999999995781, 0.000000000000000000, 0.000000000000000000 ) ) ;
#65 = FILL_AREA_STYLE ('',( #238 ) ) ;
#66 = STYLED_ITEM ( 'NONE', ( #125 ), #44 ) ;
#67 = LINE ( 'NONE', #249, #245 ) ;
#68 = FACE_OUTER_BOUND ( 'NONE', #152, .T. ) ;
#69 = ADVANCED_FACE ( 'NONE', ( #83 ), #161, .F. ) ;
#70 = ORIENTED_EDGE ( 'NONE', *, *, #235, .T. ) ;
#71 = AXIS2_PLACEMENT_3D ( 'NONE', #41, #124, #199 ) ;
#72 = DIRECTION ( 'NONE',  ( -0.1008641710789470458, 0.000000000000000000, 0.9949002055445343995 ) ) ;
#73 = ORIENTED_EDGE ( 'NONE', *, *, #172, .T. ) ;
#74 = PRESENTATION_LAYER_ASSIGNMENT (  '', '', ( #187 ) ) ;
#75 = FACE_OUTER_BOUND ( 'NONE', #190, .T. ) ;
#76 = AXIS2_PLACEMENT_3D ( 'NONE', #101, #162, #232 ) ;
#77 = PRODUCT_DEFINITION_FORMATION_WITH_SPECIFIED_SOURCE ( 'ANY', '', #15, .NOT_KNOWN. ) ;
#78 = ORIENTED_EDGE ( 'NONE', *, *, #172, .F. ) ;
#79 =( NAMED_UNIT ( * ) SI_UNIT ( $, .STERADIAN. ) SOLID_ANGLE_UNIT ( ) );
#80 = DIRECTION ( 'NONE',  ( 1.000000000000000000, -0.000000000000000000, -0.000000000000000000 ) ) ;
#81 = CARTESIAN_POINT ( 'NONE',  ( 7.206746031746035897, 0.000000000000000000, 0.000000000000000000 ) ) ;
#82 = CARTESIAN_POINT ( 'NONE',  ( 7.206746031746035897, 0.000000000000000000, -4.599999999999997868 ) ) ;
#83 = FACE_OUTER_BOUND ( 'NONE', #115, .T. ) ;
#84 =( GEOMETRIC_REPRESENTATION_CONTEXT ( 3 ) GLOBAL_UNCERTAINTY_ASSIGNED_CONTEXT ( ( #51 ) ) GLOBAL_UNIT_ASSIGNED_CONTEXT ( ( #220, #142, #18 ) ) REPRESENTATION_CONTEXT ( 'NONE', 'WORKASPACE' ) );
#85 = DIRECTION ( 'NONE',  ( 1.000000000000000000, -0.000000000000000000, -0.000000000000000000 ) ) ;
#86 =( LENGTH_UNIT ( ) NAMED_UNIT ( * ) SI_UNIT ( .MILLI., .METRE. ) );
#87 = DIRECTION ( 'NONE',  ( 1.000000000000000000, -0.000000000000000000, -0.000000000000000000 ) ) ;
#88 = APPLICATION_CONTEXT ( 'automotive_design' ) ;
#89 = ORIENTED_EDGE ( 'NONE', *, *, #23, .F. ) ;
#90 = UNCERTAINTY_MEASURE_WITH_UNIT (LENGTH_MEASURE( 1.000000000000000082E-05 ), #86, 'distance_accuracy_value', 'NONE');
#91 = CIRCLE ( 'NONE', #198, 2.649999999999999023 ) ;
#92 = VERTEX_POINT ( 'NONE', #46 ) ;
#93 = EDGE_CURVE ( 'NONE', #230, #243, #67, .T. ) ;
#94 = DIRECTION ( 'NONE',  ( 0.000000000000000000, 0.000000000000000000, 1.000000000000000000 ) ) ;
#95 = ORIENTED_EDGE ( 'NONE', *, *, #251, .T. ) ;
#96 = AXIS2_PLACEMENT_3D ( 'NONE', #179, #252, #163 ) ;
#97 = CARTESIAN_POINT ( 'NONE',  ( 7.206746031746035897, 3.245314017740484976E-16, 2.649999999999999023 ) ) ;
#98 = AXIS2_PLACEMENT_3D ( 'NONE', #149, #223, #215 ) ;
#99 = EDGE_LOOP ( 'NONE', ( #171, #70, #133, #156 ) ) ;
#100 = LINE ( 'NONE', #39, #239 ) ;
#101 = CARTESIAN_POINT ( 'NONE',  ( 0.000000000000000000, 0.000000000000000000, 0.000000000000000000 ) ) ;
#102 =( NAMED_UNIT ( * ) PLANE_ANGLE_UNIT ( ) SI_UNIT ( $, .RADIAN. ) );
#103 = DIRECTION ( 'NONE',  ( 0.000000000000000000, 0.000000000000000000, -1.000000000000000000 ) ) ;
#104 = CARTESIAN_POINT ( 'NONE',  ( -0.6499999999999995781, 5.633375276077823126E-16, -4.599999999999998757 ) ) ;
#105 = EDGE_CURVE ( 'NONE', #243, #24, #91, .T. ) ;
#106 = CYLINDRICAL_SURFACE ( 'NONE', #151, 4.599999999999997868 ) ;
#107 = FILL_AREA_STYLE ('',( #195 ) ) ;
#108 = VECTOR ( 'NONE', #72, 1000.000000000000227 ) ;
#109 = ADVANCED_FACE ( 'NONE', ( #177 ), #212, .F. ) ;
#110 = VERTEX_POINT ( 'NONE', #126 ) ;
#111 = PRODUCT_DEFINITION_CONTEXT ( 'detailed design', #27, 'design' ) ;
#112 = EDGE_CURVE ( 'NONE', #243, #9, #100, .T. ) ;
#113 = COLOUR_RGB ( '',0.7529411764705882248, 0.7529411764705882248, 0.7529411764705882248 ) ;
#114 = ORIENTED_EDGE ( 'NONE', *, *, #150, .T. ) ;
#115 = EDGE_LOOP ( 'NONE', ( #134, #226, #32, #191 ) ) ;
#116 = ORIENTED_EDGE ( 'NONE', *, *, #201, .T. ) ;
#117 = DIRECTION ( 'NONE',  ( 0.000000000000000000, 0.000000000000000000, -1.000000000000000000 ) ) ;
#118 = ORIENTED_EDGE ( 'NONE', *, *, #3, .T. ) ;
#119 = VECTOR ( 'NONE', #166, 1000.000000000000000 ) ;
#120 = SURFACE_SIDE_STYLE ('',( #17 ) ) ;
#121 = AXIS2_PLACEMENT_3D ( 'NONE', #227, #80, #208 ) ;
#122 = PRODUCT_DEFINITION_SHAPE ( 'NONE', 'NONE',  #176 ) ;
#123 = DIRECTION ( 'NONE',  ( 1.000000000000000000, -0.000000000000000000, -0.000000000000000000 ) ) ;
#124 = DIRECTION ( 'NONE',  ( -1.000000000000000000, 0.000000000000000000, 0.000000000000000000 ) ) ;
#125 = PRESENTATION_STYLE_ASSIGNMENT (( #45 ) ) ;
#126 = CARTESIAN_POINT ( 'NONE',  ( -0.1976933289467930621, 5.633375276077822140E-16, 4.599999999999997868 ) ) ;
#127 = ORIENTED_EDGE ( 'NONE', *, *, #23, .T. ) ;
#128 = AXIS2_PLACEMENT_3D ( 'NONE', #206, #209, #117 ) ;
#129 = EDGE_LOOP ( 'NONE', ( #168, #58, #224, #29 ) ) ;
#130 = EDGE_CURVE ( 'NONE', #24, #243, #43, .T. ) ;
#131 = AXIS2_PLACEMENT_3D ( 'NONE', #61, #233, #141 ) ;
#132 = PRESENTATION_LAYER_ASSIGNMENT (  '', '', ( #66 ) ) ;
#133 = ORIENTED_EDGE ( 'NONE', *, *, #251, .F. ) ;
#134 = ORIENTED_EDGE ( 'NONE', *, *, #36, .F. ) ;
#135 = COLOUR_RGB ( '',0.7529411764705882248, 0.7529411764705882248, 0.7529411764705882248 ) ;
#136 = CARTESIAN_POINT ( 'NONE',  ( 0.000000000000000000, 0.000000000000000000, 2.649999999999999023 ) ) ;
#137 = DIRECTION ( 'NONE',  ( 1.000000000000000000, -0.000000000000000000, -0.000000000000000000 ) ) ;
#138 = LINE ( 'NONE', #60, #108 ) ;
#139 = DIRECTION ( 'NONE',  ( 0.000000000000000000, 0.000000000000000000, -1.000000000000000000 ) ) ;
#140 = CARTESIAN_POINT ( 'NONE',  ( 7.206746031746035897, 5.633375276077822140E-16, 4.599999999999997868 ) ) ;
#141 = DIRECTION ( 'NONE',  ( 0.000000000000000000, 0.000000000000000000, -1.000000000000000000 ) ) ;
#142 =( NAMED_UNIT ( * ) PLANE_ANGLE_UNIT ( ) SI_UNIT ( $, .RADIAN. ) );
#143 =( LENGTH_UNIT ( ) NAMED_UNIT ( * ) SI_UNIT ( .MILLI., .METRE. ) );
#144 = DIRECTION ( 'NONE',  ( -0.1008641710789470458, 1.218401352191157545E-16, -0.9949002055445343995 ) ) ;
#145 = DIRECTION ( 'NONE',  ( 0.000000000000000000, 0.000000000000000000, -1.000000000000000000 ) ) ;
#146 = SURFACE_SIDE_STYLE ('',( #197 ) ) ;
#147 = AXIS2_PLACEMENT_3D ( 'NONE', #20, #87, #240 ) ;
#148 = DIRECTION ( 'NONE',  ( 1.000000000000000000, -0.000000000000000000, -0.000000000000000000 ) ) ;
#149 = CARTESIAN_POINT ( 'NONE',  ( -0.4523066710532073209, 0.000000000000000000, 0.000000000000000000 ) ) ;
#150 = EDGE_CURVE ( 'NONE', #92, #110, #214, .T. ) ;
#151 = AXIS2_PLACEMENT_3D ( 'NONE', #253, #85, #145 ) ;
#152 = EDGE_LOOP ( 'NONE', ( #189, #95, #56, #244 ) ) ;
#153 = CLOSED_SHELL ( 'NONE', ( #236, #241, #16, #69, #109, #2, #158, #217 ) ) ;
#154 = FACE_OUTER_BOUND ( 'NONE', #99, .T. ) ;
#155 = MANIFOLD_SOLID_BREP ( 'Rotation1', #153 ) ;
#156 = ORIENTED_EDGE ( 'NONE', *, *, #5, .F. ) ;
#157 = CARTESIAN_POINT ( 'NONE',  ( -0.1976933289467930621, 0.000000000000000000, -4.599999999999997868 ) ) ;
#158 = ADVANCED_FACE ( 'NONE', ( #68 ), #35, .T. ) ;
#159 = DIRECTION ( 'NONE',  ( 0.000000000000000000, 0.000000000000000000, 1.000000000000000000 ) ) ;
#160 = LINE ( 'NONE', #136, #184 ) ;
#161 = CYLINDRICAL_SURFACE ( 'NONE', #55, 2.649999999999999023 ) ;
#162 = DIRECTION ( 'NONE',  ( -1.000000000000000000, 0.000000000000000000, 0.000000000000000000 ) ) ;
#163 = DIRECTION ( 'NONE',  ( 0.000000000000000000, 0.000000000000000000, -1.000000000000000000 ) ) ;
#164 = CARTESIAN_POINT ( 'NONE',  ( 7.206746031746035897, 0.000000000000000000, 0.000000000000000000 ) ) ;
#165 = VECTOR ( 'NONE', #174, 1000.000000000000000 ) ;
#166 = DIRECTION ( 'NONE',  ( 1.000000000000000000, -0.000000000000000000, -0.000000000000000000 ) ) ;
#167 = AXIS2_PLACEMENT_3D ( 'NONE', #175, #210, #94 ) ;
#168 = ORIENTED_EDGE ( 'NONE', *, *, #49, .F. ) ;
#169 = CIRCLE ( 'NONE', #128, 2.649999999999999023 ) ;
#170 = CARTESIAN_POINT ( 'NONE',  ( -0.1976933289467930621, 0.000000000000000000, 0.000000000000000000 ) ) ;
#171 = ORIENTED_EDGE ( 'NONE', *, *, #36, .T. ) ;
#172 = EDGE_CURVE ( 'NONE', #247, #92, #30, .T. ) ;
#173 = MECHANICAL_DESIGN_GEOMETRIC_PRESENTATION_REPRESENTATION (  '', ( #187 ), #84 ) ;
#174 = DIRECTION ( 'NONE',  ( 1.000000000000000000, -0.000000000000000000, -0.000000000000000000 ) ) ;
#175 = CARTESIAN_POINT ( 'NONE',  ( -0.6499999999999995781, 0.000000000000000000, 0.000000000000000000 ) ) ;
#176 = PRODUCT_DEFINITION ( 'UNKNOWN', '', #77, #111 ) ;
#177 = FACE_OUTER_BOUND ( 'NONE', #129, .T. ) ;
#178 = PRODUCT_CONTEXT ( 'NONE', #88, 'mechanical' ) ;
#179 = CARTESIAN_POINT ( 'NONE',  ( 7.206746031746035897, 0.000000000000000000, 0.000000000000000000 ) ) ;
#180 = APPLICATION_PROTOCOL_DEFINITION ( 'draft international standard', 'automotive_design', 1998, #88 ) ;
#181 = CONICAL_SURFACE ( 'NONE', #76, 2.649999999999999023, 1.469760343000857228 ) ;
#182 = DIRECTION ( 'NONE',  ( 1.000000000000000000, -0.000000000000000000, -0.000000000000000000 ) ) ;
#183 = EDGE_LOOP ( 'NONE', ( #192, #52, #127, #229 ) ) ;
#184 = VECTOR ( 'NONE', #242, 1000.000000000000227 ) ;
#185 = EDGE_CURVE ( 'NONE', #247, #9, #250, .T. ) ;
#186 = ORIENTED_EDGE ( 'NONE', *, *, #112, .F. ) ;
#187 = STYLED_ITEM ( 'NONE', ( #14 ), #155 ) ;
#188 = AXIS2_PLACEMENT_3D ( 'NONE', #37, #59, #13 ) ;
#189 = ORIENTED_EDGE ( 'NONE', *, *, #150, .F. ) ;
#190 = EDGE_LOOP ( 'NONE', ( #228, #116, #48, #78 ) ) ;
#191 = ORIENTED_EDGE ( 'NONE', *, *, #93, .F. ) ;
#192 = ORIENTED_EDGE ( 'NONE', *, *, #105, .F. ) ;
#193 = ORIENTED_EDGE ( 'NONE', *, *, #185, .F. ) ;
#194 = SURFACE_STYLE_USAGE ( .BOTH. , #120 ) ;
#195 = FILL_AREA_STYLE_COLOUR ( '', #135 ) ;
#196 = DIRECTION ( 'NONE',  ( 0.000000000000000000, 0.000000000000000000, -1.000000000000000000 ) ) ;
#197 = SURFACE_STYLE_FILL_AREA ( #65 ) ;
#198 = AXIS2_PLACEMENT_3D ( 'NONE', #231, #182, #103 ) ;
#199 = DIRECTION ( 'NONE',  ( 0.000000000000000000, 0.000000000000000000, 1.000000000000000000 ) ) ;
#200 = CARTESIAN_POINT ( 'NONE',  ( -0.6499999999999995781, 5.633375276077823126E-16, -4.599999999999998757 ) ) ;
#201 = EDGE_CURVE ( 'NONE', #230, #26, #34, .T. ) ;
#202 = DIRECTION ( 'NONE',  ( 1.000000000000000000, -0.000000000000000000, -0.000000000000000000 ) ) ;
#203 = DIRECTION ( 'NONE',  ( 1.000000000000000000, -0.000000000000000000, -0.000000000000000000 ) ) ;
#204 = UNCERTAINTY_MEASURE_WITH_UNIT (LENGTH_MEASURE( 1.000000000000000082E-05 ), #143, 'distance_accuracy_value', 'NONE');
#205 = CONICAL_SURFACE ( 'NONE', #71, 2.649999999999999023, 1.469760343000857228 ) ;
#206 = CARTESIAN_POINT ( 'NONE',  ( -0.4523066710532073209, 0.000000000000000000, 0.000000000000000000 ) ) ;
#207 = ORIENTED_EDGE ( 'NONE', *, *, #31, .T. ) ;
#208 = DIRECTION ( 'NONE',  ( 0.000000000000000000, 0.000000000000000000, -1.000000000000000000 ) ) ;
#209 = DIRECTION ( 'NONE',  ( 1.000000000000000000, -0.000000000000000000, -0.000000000000000000 ) ) ;
#210 = DIRECTION ( 'NONE',  ( -1.000000000000000000, 0.000000000000000000, 0.000000000000000000 ) ) ;
#211 = SHAPE_DEFINITION_REPRESENTATION ( #122, #44 ) ;
#212 = CYLINDRICAL_SURFACE ( 'NONE', #96, 2.649999999999999023 ) ;
#213 = AXIS2_PLACEMENT_3D ( 'NONE', #64, #237, #139 ) ;
#214 = LINE ( 'NONE', #140, #25 ) ;
#215 = DIRECTION ( 'NONE',  ( 0.000000000000000000, 0.000000000000000000, -1.000000000000000000 ) ) ;
#216 = FACE_OUTER_BOUND ( 'NONE', #183, .T. ) ;
#217 = ADVANCED_FACE ( 'NONE', ( #47 ), #181, .T. ) ;
#218 = CIRCLE ( 'NONE', #213, 4.599999999999998757 ) ;
#219 = APPLICATION_PROTOCOL_DEFINITION ( 'draft international standard', 'automotive_design', 1998, #27 ) ;
#220 =( LENGTH_UNIT ( ) NAMED_UNIT ( * ) SI_UNIT ( .MILLI., .METRE. ) );
#221 = DIRECTION ( 'NONE',  ( -0.1008641710789474899, 1.218401352191157545E-16, -0.9949002055445343995 ) ) ;
#222 = PRODUCT_RELATED_PRODUCT_CATEGORY ( 'part', '', ( #15 ) ) ;
#223 = DIRECTION ( 'NONE',  ( 1.000000000000000000, -0.000000000000000000, -0.000000000000000000 ) ) ;
#224 = ORIENTED_EDGE ( 'NONE', *, *, #93, .T. ) ;
#225 = AXIS2_PLACEMENT_3D ( 'NONE', #170, #137, #33 ) ;
#226 = ORIENTED_EDGE ( 'NONE', *, *, #49, .T. ) ;
#227 = CARTESIAN_POINT ( 'NONE',  ( -0.1976933289467930621, 0.000000000000000000, 0.000000000000000000 ) ) ;
#228 = ORIENTED_EDGE ( 'NONE', *, *, #235, .F. ) ;
#229 = ORIENTED_EDGE ( 'NONE', *, *, #3, .F. ) ;
#230 = VERTEX_POINT ( 'NONE', #62 ) ;
#231 = CARTESIAN_POINT ( 'NONE',  ( 0.000000000000000000, 0.000000000000000000, 0.000000000000000000 ) ) ;
#232 = DIRECTION ( 'NONE',  ( 0.000000000000000000, 0.000000000000000000, 1.000000000000000000 ) ) ;
#233 = DIRECTION ( 'NONE',  ( 1.000000000000000000, -0.000000000000000000, -0.000000000000000000 ) ) ;
#234 = CIRCLE ( 'NONE', #121, 4.599999999999997868 ) ;
#235 = EDGE_CURVE ( 'NONE', #230, #247, #40, .T. ) ;
#236 = ADVANCED_FACE ( 'NONE', ( #216 ), #205, .T. ) ;
#237 = DIRECTION ( 'NONE',  ( 1.000000000000000000, -0.000000000000000000, -0.000000000000000000 ) ) ;
#238 = FILL_AREA_STYLE_COLOUR ( '', #113 ) ;
#239 = VECTOR ( 'NONE', #221, 1000.000000000000227 ) ;
#240 = DIRECTION ( 'NONE',  ( 0.000000000000000000, 0.000000000000000000, -1.000000000000000000 ) ) ;
#241 = ADVANCED_FACE ( 'NONE', ( #19 ), #106, .T. ) ;
#242 = DIRECTION ( 'NONE',  ( -0.1008641710789474899, 0.000000000000000000, 0.9949002055445343995 ) ) ;
#243 = VERTEX_POINT ( 'NONE', #254 ) ;
#244 = ORIENTED_EDGE ( 'NONE', *, *, #31, .F. ) ;
#245 = VECTOR ( 'NONE', #148, 1000.000000000000000 ) ;
#246 =( GEOMETRIC_REPRESENTATION_CONTEXT ( 3 ) GLOBAL_UNCERTAINTY_ASSIGNED_CONTEXT ( ( #90 ) ) GLOBAL_UNIT_ASSIGNED_CONTEXT ( ( #86, #63, #42 ) ) REPRESENTATION_CONTEXT ( 'NONE', 'WORKASPACE' ) );
#247 = VERTEX_POINT ( 'NONE', #200 ) ;
#248 = CARTESIAN_POINT ( 'NONE',  ( -0.4523066710532073209, 3.245314017740484976E-16, 2.649999999999999023 ) ) ;
#249 = CARTESIAN_POINT ( 'NONE',  ( 7.206746031746035897, 0.000000000000000000, -2.649999999999999023 ) ) ;
#250 = LINE ( 'NONE', #82, #119 ) ;
#251 = EDGE_CURVE ( 'NONE', #92, #247, #218, .T. ) ;
#252 = DIRECTION ( 'NONE',  ( 1.000000000000000000, -0.000000000000000000, -0.000000000000000000 ) ) ;
#253 = CARTESIAN_POINT ( 'NONE',  ( 7.206746031746035897, 0.000000000000000000, 0.000000000000000000 ) ) ;
#254 = CARTESIAN_POINT ( 'NONE',  ( 0.000000000000000000, 0.000000000000000000, -2.649999999999999023 ) ) ;
ENDSEC;
END-ISO-10303-21;
