ISO-10303-21;
HEADER;
FILE_DESCRIPTION (( 'STEP AP214' ),
    '1' );
FILE_NAME ('Z00.405.006.000.STEP',
    '2024-06-19T13:10:21',
    ( '' ),
    ( '' ),
    'SwSTEP 2.0',
    'SolidWorks 2022',
    '' );
FILE_SCHEMA (( 'AUTOMOTIVE_DESIGN' ));
ENDSEC;

DATA;
#1 = CARTESIAN_POINT ( 'NONE',  ( -1.897353801849632760E-16, 3.199999999999999289, 0.000000000000000000 ) ) ;
#2 = EDGE_LOOP ( 'NONE', ( #55, #20, #78, #194 ) ) ;
#3 = CARTESIAN_POINT ( 'NONE',  ( -0.4499999999999999001, 3.918869757271529474E-16, 3.199999999999999289 ) ) ;
#4 = ADVANCED_FACE ( 'NONE', ( #79 ), #113, .F. ) ;
#5 = CIRCLE ( 'NONE', #40, 3.199999999999999289 ) ;
#6 = EDGE_CURVE ( 'NONE', #105, #92, #77, .T. ) ;
#7 = DIRECTION ( 'NONE',  ( 0.000000000000000000, 0.000000000000000000, -1.000000000000000000 ) ) ;
#8 = PRODUCT_DEFINITION_SHAPE ( 'NONE', 'NONE',  #213 ) ;
#9 = AXIS2_PLACEMENT_3D ( 'NONE', #64, #108, #159 ) ;
#10 =( LENGTH_UNIT ( ) NAMED_UNIT ( * ) SI_UNIT ( .MILLI., .METRE. ) );
#11 = EDGE_LOOP ( 'NONE', ( #146, #123 ) ) ;
#12 =( NAMED_UNIT ( * ) SI_UNIT ( $, .STERADIAN. ) SOLID_ANGLE_UNIT ( ) );
#13 = CIRCLE ( 'NONE', #176, 3.199999999999999289 ) ;
#14 = ORIENTED_EDGE ( 'NONE', *, *, #106, .T. ) ;
#15 = PRESENTATION_LAYER_ASSIGNMENT (  '', '', ( #116 ) ) ;
#16 = LINE ( 'NONE', #143, #54 ) ;
#17 = DIRECTION ( 'NONE',  ( -0.000000000000000000, 0.000000000000000000, -1.000000000000000000 ) ) ;
#18 = VERTEX_POINT ( 'NONE', #197 ) ;
#19 = DIRECTION ( 'NONE',  ( 1.000000000000000000, -0.000000000000000000, -0.000000000000000000 ) ) ;
#20 = ORIENTED_EDGE ( 'NONE', *, *, #6, .T. ) ;
#21 = PRODUCT_DEFINITION_FORMATION_WITH_SPECIFIED_SOURCE ( 'ANY', '', #122, .NOT_KNOWN. ) ;
#22 = DIRECTION ( 'NONE',  ( 1.000000000000000000, -0.000000000000000000, -0.000000000000000000 ) ) ;
#23 = DIRECTION ( 'NONE',  ( 0.000000000000000000, 0.000000000000000000, -1.000000000000000000 ) ) ;
#24 = CIRCLE ( 'NONE', #9, 3.199999999999999289 ) ;
#25 = FACE_OUTER_BOUND ( 'NONE', #2, .T. ) ;
#26 = ADVANCED_FACE ( 'NONE', ( #62 ), #111, .T. ) ;
#27 =( NAMED_UNIT ( * ) PLANE_ANGLE_UNIT ( ) SI_UNIT ( $, .RADIAN. ) );
#28 = DIRECTION ( 'NONE',  ( 1.000000000000000000, -0.000000000000000000, -0.000000000000000000 ) ) ;
#29 = PLANE ( 'NONE',  #118 ) ;
#30 = CARTESIAN_POINT ( 'NONE',  ( 7.206746031746035897, 0.000000000000000000, 0.000000000000000000 ) ) ;
#31 = VECTOR ( 'NONE', #28, 1000.000000000000000 ) ;
#32 = ORIENTED_EDGE ( 'NONE', *, *, #44, .T. ) ;
#33 = ADVANCED_FACE ( 'NONE', ( #80, #184 ), #29, .T. ) ;
#34 = FACE_OUTER_BOUND ( 'NONE', #102, .T. ) ;
#35 = AXIS2_PLACEMENT_3D ( 'NONE', #83, #189, #152 ) ;
#36 = DIRECTION ( 'NONE',  ( 1.000000000000000000, -0.000000000000000000, -0.000000000000000000 ) ) ;
#37 = ADVANCED_FACE ( 'NONE', ( #34 ), #63, .F. ) ;
#38 = DIRECTION ( 'NONE',  ( 0.000000000000000000, 0.000000000000000000, 1.000000000000000000 ) ) ;
#39 = CARTESIAN_POINT ( 'NONE',  ( 0.000000000000000000, 6.245698675651499853E-16, 5.099999999999998757 ) ) ;
#40 = AXIS2_PLACEMENT_3D ( 'NONE', #97, #100, #185 ) ;
#41 = FILL_AREA_STYLE ('',( #136 ) ) ;
#42 = SURFACE_STYLE_USAGE ( .BOTH. , #75 ) ;
#43 = CARTESIAN_POINT ( 'NONE',  ( 7.206746031746035897, 0.000000000000000000, 0.000000000000000000 ) ) ;
#44 = EDGE_CURVE ( 'NONE', #47, #165, #96, .T. ) ;
#45 = ORIENTED_EDGE ( 'NONE', *, *, #164, .T. ) ;
#46 = CARTESIAN_POINT ( 'NONE',  ( 7.206746031746035897, 3.918869757271529474E-16, 3.199999999999999289 ) ) ;
#47 = VERTEX_POINT ( 'NONE', #163 ) ;
#48 = ORIENTED_EDGE ( 'NONE', *, *, #164, .F. ) ;
#49 = CARTESIAN_POINT ( 'NONE',  ( -0.4499999999999999001, 0.000000000000000000, 0.000000000000000000 ) ) ;
#50 = EDGE_CURVE ( 'NONE', #157, #47, #24, .T. ) ;
#51 = DIRECTION ( 'NONE',  ( 0.000000000000000000, 0.000000000000000000, -1.000000000000000000 ) ) ;
#52 = CARTESIAN_POINT ( 'NONE',  ( -0.4499999999999999001, 0.000000000000000000, -5.099999999999998757 ) ) ;
#53 = FACE_OUTER_BOUND ( 'NONE', #11, .T. ) ;
#54 = VECTOR ( 'NONE', #212, 1000.000000000000000 ) ;
#55 = ORIENTED_EDGE ( 'NONE', *, *, #160, .T. ) ;
#56 = FILL_AREA_STYLE ('',( #141 ) ) ;
#57 = EDGE_LOOP ( 'NONE', ( #210, #211 ) ) ;
#58 = AXIS2_PLACEMENT_3D ( 'NONE', #43, #69, #110 ) ;
#59 = SHAPE_DEFINITION_REPRESENTATION ( #8, #186 ) ;
#60 = UNCERTAINTY_MEASURE_WITH_UNIT (LENGTH_MEASURE( 1.000000000000000082E-05 ), #115, 'distance_accuracy_value', 'NONE');
#61 = DIRECTION ( 'NONE',  ( 1.000000000000000000, 0.000000000000000000, 0.000000000000000000 ) ) ;
#62 = FACE_OUTER_BOUND ( 'NONE', #175, .T. ) ;
#63 = CYLINDRICAL_SURFACE ( 'NONE', #150, 3.199999999999999289 ) ;
#64 = CARTESIAN_POINT ( 'NONE',  ( -0.4499999999999999001, 0.000000000000000000, 0.000000000000000000 ) ) ;
#65 = APPLICATION_CONTEXT ( 'automotive_design' ) ;
#66 = PRODUCT_DEFINITION_CONTEXT ( 'detailed design', #203, 'design' ) ;
#67 = CARTESIAN_POINT ( 'NONE',  ( 7.206746031746035897, 0.000000000000000000, 0.000000000000000000 ) ) ;
#68 = EDGE_CURVE ( 'NONE', #192, #18, #16, .T. ) ;
#69 = DIRECTION ( 'NONE',  ( 1.000000000000000000, -0.000000000000000000, -0.000000000000000000 ) ) ;
#70 = PLANE ( 'NONE',  #195 ) ;
#71 = FACE_BOUND ( 'NONE', #125, .T. ) ;
#72 = CARTESIAN_POINT ( 'NONE',  ( -0.4499999999999999001, 6.245698675651499853E-16, 5.099999999999998757 ) ) ;
#73 = EDGE_CURVE ( 'NONE', #157, #180, #128, .T. ) ;
#74 = AXIS2_PLACEMENT_3D ( 'NONE', #155, #171, #84 ) ;
#75 = SURFACE_SIDE_STYLE ('',( #209 ) ) ;
#76 = STYLED_ITEM ( 'NONE', ( #191 ), #149 ) ;
#77 = LINE ( 'NONE', #183, #172 ) ;
#78 = ORIENTED_EDGE ( 'NONE', *, *, #124, .F. ) ;
#79 = FACE_OUTER_BOUND ( 'NONE', #114, .T. ) ;
#80 = FACE_OUTER_BOUND ( 'NONE', #57, .T. ) ;
#81 = SURFACE_STYLE_FILL_AREA ( #41 ) ;
#82 = MECHANICAL_DESIGN_GEOMETRIC_PRESENTATION_REPRESENTATION (  '', ( #76 ), #193 ) ;
#83 = CARTESIAN_POINT ( 'NONE',  ( 0.000000000000000000, 0.000000000000000000, 0.000000000000000000 ) ) ;
#84 = DIRECTION ( 'NONE',  ( 0.000000000000000000, 0.000000000000000000, -1.000000000000000000 ) ) ;
#85 = DIRECTION ( 'NONE',  ( 1.000000000000000000, -0.000000000000000000, -0.000000000000000000 ) ) ;
#86 = DIRECTION ( 'NONE',  ( 0.000000000000000000, 0.000000000000000000, 1.000000000000000000 ) ) ;
#87 = COLOUR_RGB ( '',0.6470588235294117974, 0.6196078431372549211, 0.5882352941176470784 ) ;
#88 = PRODUCT_CONTEXT ( 'NONE', #65, 'mechanical' ) ;
#89 = EDGE_LOOP ( 'NONE', ( #95, #48 ) ) ;
#90 = EDGE_CURVE ( 'NONE', #92, #18, #179, .T. ) ;
#91 = ORIENTED_EDGE ( 'NONE', *, *, #90, .F. ) ;
#92 = VERTEX_POINT ( 'NONE', #39 ) ;
#93 = CIRCLE ( 'NONE', #112, 5.099999999999998757 ) ;
#94 = DIRECTION ( 'NONE',  ( 1.000000000000000000, -0.000000000000000000, -0.000000000000000000 ) ) ;
#95 = ORIENTED_EDGE ( 'NONE', *, *, #208, .F. ) ;
#96 = LINE ( 'NONE', #142, #31 ) ;
#97 = CARTESIAN_POINT ( 'NONE',  ( 0.000000000000000000, 0.000000000000000000, 0.000000000000000000 ) ) ;
#98 =( NAMED_UNIT ( * ) PLANE_ANGLE_UNIT ( ) SI_UNIT ( $, .RADIAN. ) );
#99 = AXIS2_PLACEMENT_3D ( 'NONE', #49, #22, #154 ) ;
#100 = DIRECTION ( 'NONE',  ( 1.000000000000000000, -0.000000000000000000, -0.000000000000000000 ) ) ;
#101 = PRESENTATION_STYLE_ASSIGNMENT (( #42 ) ) ;
#102 = EDGE_LOOP ( 'NONE', ( #177, #132, #45, #166 ) ) ;
#103 = PRESENTATION_LAYER_ASSIGNMENT (  '', '', ( #76 ) ) ;
#104 = CARTESIAN_POINT ( 'NONE',  ( 0.000000000000000000, 0.000000000000000000, 0.000000000000000000 ) ) ;
#105 = VERTEX_POINT ( 'NONE', #72 ) ;
#106 = EDGE_CURVE ( 'NONE', #47, #157, #13, .T. ) ;
#107 = APPLICATION_PROTOCOL_DEFINITION ( 'draft international standard', 'automotive_design', 1998, #203 ) ;
#108 = DIRECTION ( 'NONE',  ( 1.000000000000000000, -0.000000000000000000, -0.000000000000000000 ) ) ;
#109 = UNCERTAINTY_MEASURE_WITH_UNIT (LENGTH_MEASURE( 1.000000000000000082E-05 ), #10, 'distance_accuracy_value', 'NONE');
#110 = DIRECTION ( 'NONE',  ( 0.000000000000000000, 0.000000000000000000, -1.000000000000000000 ) ) ;
#111 = CYLINDRICAL_SURFACE ( 'NONE', #131, 5.099999999999998757 ) ;
#112 = AXIS2_PLACEMENT_3D ( 'NONE', #133, #207, #23 ) ;
#113 = CYLINDRICAL_SURFACE ( 'NONE', #58, 3.199999999999999289 ) ;
#114 = EDGE_LOOP ( 'NONE', ( #198, #182, #32, #127 ) ) ;
#115 =( LENGTH_UNIT ( ) NAMED_UNIT ( * ) SI_UNIT ( .MILLI., .METRE. ) );
#116 = STYLED_ITEM ( 'NONE', ( #101 ), #186 ) ;
#117 = CARTESIAN_POINT ( 'NONE',  ( -0.4500000000000001221, 5.099999999999998757, 0.000000000000000000 ) ) ;
#118 = AXIS2_PLACEMENT_3D ( 'NONE', #1, #161, #17 ) ;
#119 = APPLICATION_PROTOCOL_DEFINITION ( 'draft international standard', 'automotive_design', 1998, #65 ) ;
#120 = ORIENTED_EDGE ( 'NONE', *, *, #50, .T. ) ;
#121 = PRODUCT_RELATED_PRODUCT_CATEGORY ( 'part', '', ( #122 ) ) ;
#122 = PRODUCT ( 'Z00.405.006.000', 'Z00.405.006.000', '', ( #88 ) ) ;
#123 = ORIENTED_EDGE ( 'NONE', *, *, #202, .F. ) ;
#124 = EDGE_CURVE ( 'NONE', #18, #92, #167, .T. ) ;
#125 = EDGE_LOOP ( 'NONE', ( #14, #120 ) ) ;
#126 =( GEOMETRIC_REPRESENTATION_CONTEXT ( 3 ) GLOBAL_UNCERTAINTY_ASSIGNED_CONTEXT ( ( #139 ) ) GLOBAL_UNIT_ASSIGNED_CONTEXT ( ( #188, #27, #158 ) ) REPRESENTATION_CONTEXT ( 'NONE', 'WORKASPACE' ) );
#127 = ORIENTED_EDGE ( 'NONE', *, *, #208, .T. ) ;
#128 = LINE ( 'NONE', #46, #187 ) ;
#129 = ORIENTED_EDGE ( 'NONE', *, *, #202, .T. ) ;
#130 = COLOUR_RGB ( '',0.6470588235294117974, 0.6196078431372549211, 0.5882352941176470784 ) ;
#131 = AXIS2_PLACEMENT_3D ( 'NONE', #30, #181, #200 ) ;
#132 = ORIENTED_EDGE ( 'NONE', *, *, #73, .T. ) ;
#133 = CARTESIAN_POINT ( 'NONE',  ( -0.4499999999999999001, 0.000000000000000000, 0.000000000000000000 ) ) ;
#134 = CARTESIAN_POINT ( 'NONE',  ( 0.000000000000000000, 0.000000000000000000, 0.000000000000000000 ) ) ;
#135 = SURFACE_STYLE_USAGE ( .BOTH. , #170 ) ;
#136 = FILL_AREA_STYLE_COLOUR ( '', #87 ) ;
#137 =( NAMED_UNIT ( * ) SI_UNIT ( $, .STERADIAN. ) SOLID_ANGLE_UNIT ( ) );
#138 = CIRCLE ( 'NONE', #99, 5.099999999999998757 ) ;
#139 = UNCERTAINTY_MEASURE_WITH_UNIT (LENGTH_MEASURE( 1.000000000000000082E-05 ), #188, 'distance_accuracy_value', 'NONE');
#140 = CIRCLE ( 'NONE', #35, 3.199999999999999289 ) ;
#141 = FILL_AREA_STYLE_COLOUR ( '', #130 ) ;
#142 = CARTESIAN_POINT ( 'NONE',  ( 7.206746031746035897, 0.000000000000000000, -3.199999999999999289 ) ) ;
#143 = CARTESIAN_POINT ( 'NONE',  ( 7.206746031746035897, 0.000000000000000000, -5.099999999999998757 ) ) ;
#144 = AXIS2_PLACEMENT_3D ( 'NONE', #104, #86, #61 ) ;
#145 = DIRECTION ( 'NONE',  ( 1.000000000000000000, -0.000000000000000000, -0.000000000000000000 ) ) ;
#146 = ORIENTED_EDGE ( 'NONE', *, *, #160, .F. ) ;
#147 = ORIENTED_EDGE ( 'NONE', *, *, #6, .F. ) ;
#148 = ADVANCED_FACE ( 'NONE', ( #25 ), #174, .T. ) ;
#149 = MANIFOLD_SOLID_BREP ( 'Rotation1', #204 ) ;
#150 = AXIS2_PLACEMENT_3D ( 'NONE', #67, #145, #214 ) ;
#151 = CARTESIAN_POINT ( 'NONE',  ( -0.4499999999999999001, 0.000000000000000000, 0.000000000000000000 ) ) ;
#152 = DIRECTION ( 'NONE',  ( 0.000000000000000000, 0.000000000000000000, -1.000000000000000000 ) ) ;
#153 = DIRECTION ( 'NONE',  ( 1.000000000000000000, -0.000000000000000000, -0.000000000000000000 ) ) ;
#154 = DIRECTION ( 'NONE',  ( 0.000000000000000000, 0.000000000000000000, -1.000000000000000000 ) ) ;
#155 = CARTESIAN_POINT ( 'NONE',  ( 0.000000000000000000, 0.000000000000000000, 0.000000000000000000 ) ) ;
#156 = MECHANICAL_DESIGN_GEOMETRIC_PRESENTATION_REPRESENTATION (  '', ( #116 ), #190 ) ;
#157 = VERTEX_POINT ( 'NONE', #3 ) ;
#158 =( NAMED_UNIT ( * ) SI_UNIT ( $, .STERADIAN. ) SOLID_ANGLE_UNIT ( ) );
#159 = DIRECTION ( 'NONE',  ( 0.000000000000000000, 0.000000000000000000, -1.000000000000000000 ) ) ;
#160 = EDGE_CURVE ( 'NONE', #192, #105, #93, .T. ) ;
#161 = DIRECTION ( 'NONE',  ( 1.000000000000000000, 0.000000000000000000, -0.000000000000000000 ) ) ;
#162 = AXIS2_PLACEMENT_3D ( 'NONE', #134, #153, #51 ) ;
#163 = CARTESIAN_POINT ( 'NONE',  ( -0.4499999999999999001, 0.000000000000000000, -3.199999999999999289 ) ) ;
#164 = EDGE_CURVE ( 'NONE', #180, #165, #5, .T. ) ;
#165 = VERTEX_POINT ( 'NONE', #206 ) ;
#166 = ORIENTED_EDGE ( 'NONE', *, *, #44, .F. ) ;
#167 = CIRCLE ( 'NONE', #74, 5.099999999999998757 ) ;
#168 = CARTESIAN_POINT ( 'NONE',  ( 7.206746031746035897, 0.000000000000000000, 0.000000000000000000 ) ) ;
#169 = DIRECTION ( 'NONE',  ( 0.000000000000000000, 0.000000000000000000, -1.000000000000000000 ) ) ;
#170 = SURFACE_SIDE_STYLE ('',( #81 ) ) ;
#171 = DIRECTION ( 'NONE',  ( 1.000000000000000000, -0.000000000000000000, -0.000000000000000000 ) ) ;
#172 = VECTOR ( 'NONE', #19, 1000.000000000000000 ) ;
#173 = ADVANCED_FACE ( 'NONE', ( #71, #53 ), #70, .T. ) ;
#174 = CYLINDRICAL_SURFACE ( 'NONE', #199, 5.099999999999998757 ) ;
#175 = EDGE_LOOP ( 'NONE', ( #147, #129, #196, #91 ) ) ;
#176 = AXIS2_PLACEMENT_3D ( 'NONE', #151, #36, #169 ) ;
#177 = ORIENTED_EDGE ( 'NONE', *, *, #50, .F. ) ;
#178 =( NAMED_UNIT ( * ) PLANE_ANGLE_UNIT ( ) SI_UNIT ( $, .RADIAN. ) );
#179 = CIRCLE ( 'NONE', #162, 5.099999999999998757 ) ;
#180 = VERTEX_POINT ( 'NONE', #205 ) ;
#181 = DIRECTION ( 'NONE',  ( 1.000000000000000000, -0.000000000000000000, -0.000000000000000000 ) ) ;
#182 = ORIENTED_EDGE ( 'NONE', *, *, #106, .F. ) ;
#183 = CARTESIAN_POINT ( 'NONE',  ( 7.206746031746035897, 6.245698675651499853E-16, 5.099999999999998757 ) ) ;
#184 = FACE_BOUND ( 'NONE', #89, .T. ) ;
#185 = DIRECTION ( 'NONE',  ( 0.000000000000000000, 0.000000000000000000, -1.000000000000000000 ) ) ;
#186 = ADVANCED_BREP_SHAPE_REPRESENTATION ( 'Z00.405.006.000', ( #149, #144 ), #126 ) ;
#187 = VECTOR ( 'NONE', #94, 1000.000000000000000 ) ;
#188 =( LENGTH_UNIT ( ) NAMED_UNIT ( * ) SI_UNIT ( .MILLI., .METRE. ) );
#189 = DIRECTION ( 'NONE',  ( 1.000000000000000000, -0.000000000000000000, -0.000000000000000000 ) ) ;
#190 =( GEOMETRIC_REPRESENTATION_CONTEXT ( 3 ) GLOBAL_UNCERTAINTY_ASSIGNED_CONTEXT ( ( #109 ) ) GLOBAL_UNIT_ASSIGNED_CONTEXT ( ( #10, #178, #12 ) ) REPRESENTATION_CONTEXT ( 'NONE', 'WORKASPACE' ) );
#191 = PRESENTATION_STYLE_ASSIGNMENT (( #135 ) ) ;
#192 = VERTEX_POINT ( 'NONE', #52 ) ;
#193 =( GEOMETRIC_REPRESENTATION_CONTEXT ( 3 ) GLOBAL_UNCERTAINTY_ASSIGNED_CONTEXT ( ( #60 ) ) GLOBAL_UNIT_ASSIGNED_CONTEXT ( ( #115, #98, #137 ) ) REPRESENTATION_CONTEXT ( 'NONE', 'WORKASPACE' ) );
#194 = ORIENTED_EDGE ( 'NONE', *, *, #68, .F. ) ;
#195 = AXIS2_PLACEMENT_3D ( 'NONE', #117, #201, #38 ) ;
#196 = ORIENTED_EDGE ( 'NONE', *, *, #68, .T. ) ;
#197 = CARTESIAN_POINT ( 'NONE',  ( 0.000000000000000000, 0.000000000000000000, -5.099999999999998757 ) ) ;
#198 = ORIENTED_EDGE ( 'NONE', *, *, #73, .F. ) ;
#199 = AXIS2_PLACEMENT_3D ( 'NONE', #168, #85, #7 ) ;
#200 = DIRECTION ( 'NONE',  ( 0.000000000000000000, 0.000000000000000000, -1.000000000000000000 ) ) ;
#201 = DIRECTION ( 'NONE',  ( -1.000000000000000000, 0.000000000000000000, 0.000000000000000000 ) ) ;
#202 = EDGE_CURVE ( 'NONE', #105, #192, #138, .T. ) ;
#203 = APPLICATION_CONTEXT ( 'automotive_design' ) ;
#204 = CLOSED_SHELL ( 'NONE', ( #148, #37, #4, #173, #26, #33 ) ) ;
#205 = CARTESIAN_POINT ( 'NONE',  ( 0.000000000000000000, 3.918869757271529474E-16, 3.199999999999999289 ) ) ;
#206 = CARTESIAN_POINT ( 'NONE',  ( 0.000000000000000000, 0.000000000000000000, -3.199999999999999289 ) ) ;
#207 = DIRECTION ( 'NONE',  ( 1.000000000000000000, -0.000000000000000000, -0.000000000000000000 ) ) ;
#208 = EDGE_CURVE ( 'NONE', #165, #180, #140, .T. ) ;
#209 = SURFACE_STYLE_FILL_AREA ( #56 ) ;
#210 = ORIENTED_EDGE ( 'NONE', *, *, #124, .T. ) ;
#211 = ORIENTED_EDGE ( 'NONE', *, *, #90, .T. ) ;
#212 = DIRECTION ( 'NONE',  ( 1.000000000000000000, -0.000000000000000000, -0.000000000000000000 ) ) ;
#213 = PRODUCT_DEFINITION ( 'UNKNOWN', '', #21, #66 ) ;
#214 = DIRECTION ( 'NONE',  ( 0.000000000000000000, 0.000000000000000000, -1.000000000000000000 ) ) ;
ENDSEC;
END-ISO-10303-21;
