ISO-10303-21;
HEADER;
FILE_DESCRIPTION (( 'STEP AP214' ),
    '1' );
FILE_NAME ('Z00.405.008.000.STEP',
    '2024-06-19T12:06:24',
    ( '' ),
    ( '' ),
    'SwSTEP 2.0',
    'SolidWorks 2022',
    '' );
FILE_SCHEMA (( 'AUTOMOTIVE_DESIGN' ));
ENDSEC;

DATA;
#1 = ORIENTED_EDGE ( 'NONE', *, *, #60, .T. ) ;
#2 =( GEOMETRIC_REPRESENTATION_CONTEXT ( 3 ) GLOBAL_UNCERTAINTY_ASSIGNED_CONTEXT ( ( #28 ) ) GLOBAL_UNIT_ASSIGNED_CONTEXT ( ( #97, #169, #128 ) ) REPRESENTATION_CONTEXT ( 'NONE', 'WORKASPACE' ) );
#3 = LINE ( 'NONE', #106, #199 ) ;
#4 = FILL_AREA_STYLE ('',( #74 ) ) ;
#5 =( LENGTH_UNIT ( ) NAMED_UNIT ( * ) SI_UNIT ( .MILLI., .METRE. ) );
#6 = CARTESIAN_POINT ( 'NONE',  ( 7.206746031746035897, -7.638334409421076683E-15, -4.200000000000016165 ) ) ;
#7 = CARTESIAN_POINT ( 'NONE',  ( 0.000000000000000000, 0.000000000000000000, 0.000000000000000000 ) ) ;
#8 = ORIENTED_EDGE ( 'NONE', *, *, #179, .T. ) ;
#9 = DIRECTION ( 'NONE',  ( 1.000000000000000000, 0.000000000000000000, 0.000000000000000000 ) ) ;
#10 = PRESENTATION_LAYER_ASSIGNMENT (  '', '', ( #202 ) ) ;
#11 = ORIENTED_EDGE ( 'NONE', *, *, #88, .T. ) ;
#12 = VERTEX_POINT ( 'NONE', #65 ) ;
#13 = AXIS2_PLACEMENT_3D ( 'NONE', #163, #124, #201 ) ;
#14 = CARTESIAN_POINT ( 'NONE',  ( 7.206746031746035897, -6.938893903907228378E-15, -1.387778780781445676E-14 ) ) ;
#15 = FACE_OUTER_BOUND ( 'NONE', #114, .T. ) ;
#16 = EDGE_LOOP ( 'NONE', ( #188, #174, #8, #210 ) ) ;
#17 = ADVANCED_FACE ( 'NONE', ( #52 ), #189, .F. ) ;
#18 = ORIENTED_EDGE ( 'NONE', *, *, #88, .F. ) ;
#19 = VERTEX_POINT ( 'NONE', #103 ) ;
#20 = DIRECTION ( 'NONE',  ( 1.000000000000000000, -4.259385939352627576E-17, -1.112428321272187978E-17 ) ) ;
#21 = EDGE_CURVE ( 'NONE', #134, #95, #86, .T. ) ;
#22 = CARTESIAN_POINT ( 'NONE',  ( 7.786998248905429550E-17, -4.597230530153409644E-15, 7.000000000000000000 ) ) ;
#23 = CARTESIAN_POINT ( 'NONE',  ( -0.5499999999999948264, -4.597230530153453032E-15, 7.000000000000014211 ) ) ;
#24 = ADVANCED_FACE ( 'NONE', ( #209 ), #133, .T. ) ;
#25 = CARTESIAN_POINT ( 'NONE',  ( 7.206746031746036785, -5.725101742751490399E-15, 4.199999999999988631 ) ) ;
#26 = APPLICATION_CONTEXT ( 'automotive_design' ) ;
#27 = EDGE_LOOP ( 'NONE', ( #143, #11 ) ) ;
#28 = UNCERTAINTY_MEASURE_WITH_UNIT (LENGTH_MEASURE( 1.000000000000000082E-05 ), #97, 'distance_accuracy_value', 'NONE');
#29 = AXIS2_PLACEMENT_3D ( 'NONE', #54, #145, #120 ) ;
#30 = ORIENTED_EDGE ( 'NONE', *, *, #194, .F. ) ;
#31 = CARTESIAN_POINT ( 'NONE',  ( 7.206746031746035897, -6.938893903907228378E-15, -1.387778780781445676E-14 ) ) ;
#32 = CYLINDRICAL_SURFACE ( 'NONE', #190, 4.200000000000001954 ) ;
#33 = FACE_OUTER_BOUND ( 'NONE', #47, .T. ) ;
#34 = CLOSED_SHELL ( 'NONE', ( #79, #17, #122, #84, #24, #138 ) ) ;
#35 = CARTESIAN_POINT ( 'NONE',  ( 0.000000000000000000, 0.000000000000000000, 0.000000000000000000 ) ) ;
#36 = VECTOR ( 'NONE', #20, 1000.000000000000000 ) ;
#37 = LINE ( 'NONE', #25, #36 ) ;
#38 =( NAMED_UNIT ( * ) SI_UNIT ( $, .STERADIAN. ) SOLID_ANGLE_UNIT ( ) );
#39 = EDGE_CURVE ( 'NONE', #19, #186, #62, .T. ) ;
#40 = COLOUR_RGB ( '',0.7529411764705882248, 0.7529411764705882248, 0.7529411764705882248 ) ;
#41 = SURFACE_STYLE_USAGE ( .BOTH. , #46 ) ;
#42 = VERTEX_POINT ( 'NONE', #67 ) ;
#43 = UNCERTAINTY_MEASURE_WITH_UNIT (LENGTH_MEASURE( 1.000000000000000082E-05 ), #5, 'distance_accuracy_value', 'NONE');
#44 = CIRCLE ( 'NONE', #13, 7.000000000000002665 ) ;
#45 = EDGE_LOOP ( 'NONE', ( #180, #101 ) ) ;
#46 = SURFACE_SIDE_STYLE ('',( #184 ) ) ;
#47 = EDGE_LOOP ( 'NONE', ( #81, #1, #161, #59 ) ) ;
#48 = CARTESIAN_POINT ( 'NONE',  ( 0.000000000000000000, 0.000000000000000000, 0.000000000000000000 ) ) ;
#49 = AXIS2_PLACEMENT_3D ( 'NONE', #117, #195, #146 ) ;
#50 = DIRECTION ( 'NONE',  ( 1.000000000000000000, -4.259385939352627576E-17, -1.112428321272187978E-17 ) ) ;
#51 = CARTESIAN_POINT ( 'NONE',  ( -0.5499999999999949374, 1.040834085586084257E-14, 1.387778780781445676E-14 ) ) ;
#52 = FACE_OUTER_BOUND ( 'NONE', #204, .T. ) ;
#53 = APPLICATION_CONTEXT ( 'automotive_design' ) ;
#54 = CARTESIAN_POINT ( 'NONE',  ( -0.5499999999999949374, 1.040834085586084257E-14, 1.387778780781445676E-14 ) ) ;
#55 = EDGE_CURVE ( 'NONE', #193, #111, #164, .T. ) ;
#56 = PRESENTATION_STYLE_ASSIGNMENT (( #200 ) ) ;
#57 = DIRECTION ( 'NONE',  ( 1.000000000000000000, -4.259385939352627576E-17, -1.112428321272187978E-17 ) ) ;
#58 = PRODUCT_DEFINITION_FORMATION_WITH_SPECIFIED_SOURCE ( 'ANY', '', #148, .NOT_KNOWN. ) ;
#59 = ORIENTED_EDGE ( 'NONE', *, *, #179, .F. ) ;
#60 = EDGE_CURVE ( 'NONE', #134, #193, #82, .T. ) ;
#61 = FILL_AREA_STYLE_COLOUR ( '', #168 ) ;
#62 = CIRCLE ( 'NONE', #29, 4.200000000000001066 ) ;
#63 = ORIENTED_EDGE ( 'NONE', *, *, #150, .F. ) ;
#64 = CARTESIAN_POINT ( 'NONE',  ( 7.206746031746035897, -6.938893903907228378E-15, -1.387778780781445676E-14 ) ) ;
#65 = CARTESIAN_POINT ( 'NONE',  ( 4.672198949343247993E-17, -5.406425304257242326E-15, 4.200000000000000178 ) ) ;
#66 =( GEOMETRIC_REPRESENTATION_CONTEXT ( 3 ) GLOBAL_UNCERTAINTY_ASSIGNED_CONTEXT ( ( #43 ) ) GLOBAL_UNIT_ASSIGNED_CONTEXT ( ( #5, #196, #125 ) ) REPRESENTATION_CONTEXT ( 'NONE', 'WORKASPACE' ) );
#67 = CARTESIAN_POINT ( 'NONE',  ( -8.232205887357729786E-16, -6.994405055138486994E-16, -4.200000000000001954 ) ) ;
#68 = DIRECTION ( 'NONE',  ( -1.960049020799458510E-16, -1.665334536937734318E-16, -1.000000000000000000 ) ) ;
#69 = ORIENTED_EDGE ( 'NONE', *, *, #21, .F. ) ;
#70 = AXIS2_PLACEMENT_3D ( 'NONE', #48, #191, #115 ) ;
#71 = DIRECTION ( 'NONE',  ( 1.000000000000000000, -4.259385939352627576E-17, -1.112428321272187978E-17 ) ) ;
#72 = CARTESIAN_POINT ( 'NONE',  ( 0.000000000000000000, 0.000000000000000000, 0.000000000000000000 ) ) ;
#73 = VECTOR ( 'NONE', #57, 1000.000000000000000 ) ;
#74 = FILL_AREA_STYLE_COLOUR ( '', #40 ) ;
#75 = DIRECTION ( 'NONE',  ( 1.000000000000000000, -4.259385939352627576E-17, -1.112428321272187978E-17 ) ) ;
#76 = PRESENTATION_STYLE_ASSIGNMENT (( #41 ) ) ;
#77 = AXIS2_PLACEMENT_3D ( 'NONE', #51, #157, #178 ) ;
#78 = PRODUCT_DEFINITION_CONTEXT ( 'detailed design', #53, 'design' ) ;
#79 = ADVANCED_FACE ( 'NONE', ( #33 ), #118, .T. ) ;
#80 =( GEOMETRIC_REPRESENTATION_CONTEXT ( 3 ) GLOBAL_UNCERTAINTY_ASSIGNED_CONTEXT ( ( #208 ) ) GLOBAL_UNIT_ASSIGNED_CONTEXT ( ( #108, #121, #38 ) ) REPRESENTATION_CONTEXT ( 'NONE', 'WORKASPACE' ) );
#81 = ORIENTED_EDGE ( 'NONE', *, *, #150, .T. ) ;
#82 = LINE ( 'NONE', #162, #177 ) ;
#83 = DIRECTION ( 'NONE',  ( 1.000000000000000000, -4.259385939352631274E-17, -1.960049020799458264E-16 ) ) ;
#84 = ADVANCED_FACE ( 'NONE', ( #15, #116 ), #87, .T. ) ;
#85 = ORIENTED_EDGE ( 'NONE', *, *, #130, .T. ) ;
#86 = CIRCLE ( 'NONE', #49, 7.000000000000002665 ) ;
#87 = PLANE ( 'NONE',  #96 ) ;
#88 = EDGE_CURVE ( 'NONE', #186, #19, #211, .T. ) ;
#89 = CARTESIAN_POINT ( 'NONE',  ( 6.938893903907228378E-15, 4.200000000000001954, 1.387778780781445676E-14 ) ) ;
#90 = SURFACE_SIDE_STYLE ('',( #126 ) ) ;
#91 = CARTESIAN_POINT ( 'NONE',  ( -0.5499999999999949374, -5.406425304257322790E-15, 4.200000000000013500 ) ) ;
#92 = FACE_OUTER_BOUND ( 'NONE', #154, .T. ) ;
#93 = PRODUCT_DEFINITION ( 'UNKNOWN', '', #58, #78 ) ;
#94 = PRODUCT_CONTEXT ( 'NONE', #26, 'mechanical' ) ;
#95 = VERTEX_POINT ( 'NONE', #142 ) ;
#96 = AXIS2_PLACEMENT_3D ( 'NONE', #89, #83, #214 ) ;
#97 =( LENGTH_UNIT ( ) NAMED_UNIT ( * ) SI_UNIT ( .MILLI., .METRE. ) );
#98 = DIRECTION ( 'NONE',  ( 1.000000000000000000, -4.259385939352627576E-17, -1.112428321272187978E-17 ) ) ;
#99 = DIRECTION ( 'NONE',  ( 1.000000000000000000, -4.259385939352627576E-17, -1.112428321272187978E-17 ) ) ;
#100 = CARTESIAN_POINT ( 'NONE',  ( 7.206746031746035897, -6.938893903907228378E-15, -1.387778780781445676E-14 ) ) ;
#101 = ORIENTED_EDGE ( 'NONE', *, *, #185, .F. ) ;
#102 = MECHANICAL_DESIGN_GEOMETRIC_PRESENTATION_REPRESENTATION (  '', ( #202 ), #2 ) ;
#103 = CARTESIAN_POINT ( 'NONE',  ( -0.5499999999999958256, 9.708900350346994262E-15, -4.199999999999987743 ) ) ;
#104 = FACE_BOUND ( 'NONE', #27, .T. ) ;
#105 = EDGE_CURVE ( 'NONE', #42, #12, #183, .T. ) ;
#106 = CARTESIAN_POINT ( 'NONE',  ( 7.206746031746035008, -8.104628079763642745E-15, -7.000000000000016875 ) ) ;
#107 = AXIS2_PLACEMENT_3D ( 'NONE', #181, #75, #140 ) ;
#108 =( LENGTH_UNIT ( ) NAMED_UNIT ( * ) SI_UNIT ( .MILLI., .METRE. ) );
#109 = APPLICATION_PROTOCOL_DEFINITION ( 'draft international standard', 'automotive_design', 1998, #26 ) ;
#110 = AXIS2_PLACEMENT_3D ( 'NONE', #14, #176, #135 ) ;
#111 = VERTEX_POINT ( 'NONE', #158 ) ;
#112 = APPLICATION_PROTOCOL_DEFINITION ( 'draft international standard', 'automotive_design', 1998, #53 ) ;
#113 = ORIENTED_EDGE ( 'NONE', *, *, #194, .T. ) ;
#114 = EDGE_LOOP ( 'NONE', ( #85, #155 ) ) ;
#115 = DIRECTION ( 'NONE',  ( -1.960049020799458264E-16, -1.665334536937733825E-16, -1.000000000000000000 ) ) ;
#116 = FACE_BOUND ( 'NONE', #45, .T. ) ;
#117 = CARTESIAN_POINT ( 'NONE',  ( -0.5499999999999949374, 1.040834085586084257E-14, 1.387778780781445676E-14 ) ) ;
#118 = CYLINDRICAL_SURFACE ( 'NONE', #207, 7.000000000000002665 ) ;
#119 = AXIS2_PLACEMENT_3D ( 'NONE', #72, #137, #139 ) ;
#120 = DIRECTION ( 'NONE',  ( -2.065146995210484202E-16, -1.665334536937734318E-16, -1.000000000000000000 ) ) ;
#121 =( NAMED_UNIT ( * ) PLANE_ANGLE_UNIT ( ) SI_UNIT ( $, .RADIAN. ) );
#122 = ADVANCED_FACE ( 'NONE', ( #175 ), #32, .F. ) ;
#123 = AXIS2_PLACEMENT_3D ( 'NONE', #165, #197, #182 ) ;
#124 = DIRECTION ( 'NONE',  ( 1.000000000000000000, -4.259385939352627576E-17, -1.112428321272187978E-17 ) ) ;
#125 =( NAMED_UNIT ( * ) SI_UNIT ( $, .STERADIAN. ) SOLID_ANGLE_UNIT ( ) );
#126 = SURFACE_STYLE_FILL_AREA ( #4 ) ;
#127 = AXIS2_PLACEMENT_3D ( 'NONE', #7, #141, #9 ) ;
#128 =( NAMED_UNIT ( * ) SI_UNIT ( $, .STERADIAN. ) SOLID_ANGLE_UNIT ( ) );
#129 = ORIENTED_EDGE ( 'NONE', *, *, #213, .F. ) ;
#130 = EDGE_CURVE ( 'NONE', #111, #193, #136, .T. ) ;
#131 = ORIENTED_EDGE ( 'NONE', *, *, #39, .F. ) ;
#132 = DIRECTION ( 'NONE',  ( -2.478176394252580648E-16, -1.665334536937733332E-16, -1.000000000000000000 ) ) ;
#133 = CYLINDRICAL_SURFACE ( 'NONE', #152, 7.000000000000002665 ) ;
#134 = VERTEX_POINT ( 'NONE', #23 ) ;
#135 = DIRECTION ( 'NONE',  ( -2.065146995210483709E-16, -1.665334536937734071E-16, -1.000000000000000000 ) ) ;
#136 = CIRCLE ( 'NONE', #107, 7.000000000000002665 ) ;
#137 = DIRECTION ( 'NONE',  ( 1.000000000000000000, -4.259385939352627576E-17, -1.112428321272187978E-17 ) ) ;
#138 = ADVANCED_FACE ( 'NONE', ( #104, #92 ), #153, .T. ) ;
#139 = DIRECTION ( 'NONE',  ( -1.960049020799458510E-16, -1.665334536937734318E-16, -1.000000000000000000 ) ) ;
#140 = DIRECTION ( 'NONE',  ( -1.960049020799458264E-16, -1.665334536937733825E-16, -1.000000000000000000 ) ) ;
#141 = DIRECTION ( 'NONE',  ( 0.000000000000000000, 0.000000000000000000, 1.000000000000000000 ) ) ;
#142 = CARTESIAN_POINT ( 'NONE',  ( -0.5499999999999963807, 9.242606680004428199E-15, -6.999999999999988454 ) ) ;
#143 = ORIENTED_EDGE ( 'NONE', *, *, #39, .T. ) ;
#144 = PRESENTATION_LAYER_ASSIGNMENT (  '', '', ( #187 ) ) ;
#145 = DIRECTION ( 'NONE',  ( 1.000000000000000000, -4.259385939352627576E-17, -1.112428321272187978E-17 ) ) ;
#146 = DIRECTION ( 'NONE',  ( -2.013518320330221746E-16, -1.665334536937733332E-16, -1.000000000000000000 ) ) ;
#147 = ORIENTED_EDGE ( 'NONE', *, *, #213, .T. ) ;
#148 = PRODUCT ( 'Z00.405.008.000', 'Z00.405.008.000', '', ( #94 ) ) ;
#149 = LINE ( 'NONE', #6, #73 ) ;
#150 = EDGE_CURVE ( 'NONE', #95, #134, #44, .T. ) ;
#151 = DIRECTION ( 'NONE',  ( 1.000000000000000000, -4.259385939352627576E-17, -1.112428321272187978E-17 ) ) ;
#152 = AXIS2_PLACEMENT_3D ( 'NONE', #64, #212, #132 ) ;
#153 = PLANE ( 'NONE',  #123 ) ;
#154 = EDGE_LOOP ( 'NONE', ( #63, #69 ) ) ;
#155 = ORIENTED_EDGE ( 'NONE', *, *, #55, .T. ) ;
#156 = MECHANICAL_DESIGN_GEOMETRIC_PRESENTATION_REPRESENTATION (  '', ( #187 ), #66 ) ;
#157 = DIRECTION ( 'NONE',  ( 1.000000000000000000, -4.259385939352627576E-17, -1.112428321272187978E-17 ) ) ;
#158 = CARTESIAN_POINT ( 'NONE',  ( -1.372034314559621302E-15, -1.165734175856414170E-15, -7.000000000000002665 ) ) ;
#159 = ORIENTED_EDGE ( 'NONE', *, *, #185, .T. ) ;
#160 = CIRCLE ( 'NONE', #119, 4.200000000000001954 ) ;
#161 = ORIENTED_EDGE ( 'NONE', *, *, #130, .F. ) ;
#162 = CARTESIAN_POINT ( 'NONE',  ( 7.206746031746037673, -4.915906968647666395E-15, 6.999999999999988454 ) ) ;
#163 = CARTESIAN_POINT ( 'NONE',  ( -0.5499999999999949374, 1.040834085586084257E-14, 1.387778780781445676E-14 ) ) ;
#164 = CIRCLE ( 'NONE', #70, 7.000000000000002665 ) ;
#165 = CARTESIAN_POINT ( 'NONE',  ( -0.5500000000000018208, 7.000000000000004441, 0.000000000000000000 ) ) ;
#166 = DIRECTION ( 'NONE',  ( -2.065146995210483709E-16, -1.665334536937734071E-16, -1.000000000000000000 ) ) ;
#167 = ORIENTED_EDGE ( 'NONE', *, *, #105, .T. ) ;
#168 = COLOUR_RGB ( '',0.7529411764705882248, 0.7529411764705882248, 0.7529411764705882248 ) ;
#169 =( NAMED_UNIT ( * ) PLANE_ANGLE_UNIT ( ) SI_UNIT ( $, .RADIAN. ) );
#170 = PRODUCT_RELATED_PRODUCT_CATEGORY ( 'part', '', ( #148 ) ) ;
#171 = FILL_AREA_STYLE ('',( #61 ) ) ;
#172 = EDGE_LOOP ( 'NONE', ( #129, #131, #113, #167 ) ) ;
#173 = AXIS2_PLACEMENT_3D ( 'NONE', #35, #99, #68 ) ;
#174 = ORIENTED_EDGE ( 'NONE', *, *, #21, .T. ) ;
#175 = FACE_OUTER_BOUND ( 'NONE', #172, .T. ) ;
#176 = DIRECTION ( 'NONE',  ( 1.000000000000000000, -4.259385939352627576E-17, -1.112428321272187978E-17 ) ) ;
#177 = VECTOR ( 'NONE', #98, 1000.000000000000000 ) ;
#178 = DIRECTION ( 'NONE',  ( -2.065146995210484202E-16, -1.665334536937734318E-16, -1.000000000000000000 ) ) ;
#179 = EDGE_CURVE ( 'NONE', #95, #111, #3, .T. ) ;
#180 = ORIENTED_EDGE ( 'NONE', *, *, #105, .F. ) ;
#181 = CARTESIAN_POINT ( 'NONE',  ( 0.000000000000000000, 0.000000000000000000, 0.000000000000000000 ) ) ;
#182 = DIRECTION ( 'NONE',  ( 1.960049020799458264E-16, 1.665334536937734071E-16, 1.000000000000000000 ) ) ;
#183 = CIRCLE ( 'NONE', #173, 4.200000000000001954 ) ;
#184 = SURFACE_STYLE_FILL_AREA ( #171 ) ;
#185 = EDGE_CURVE ( 'NONE', #12, #42, #160, .T. ) ;
#186 = VERTEX_POINT ( 'NONE', #91 ) ;
#187 = STYLED_ITEM ( 'NONE', ( #56 ), #205 ) ;
#188 = ORIENTED_EDGE ( 'NONE', *, *, #60, .F. ) ;
#189 = CYLINDRICAL_SURFACE ( 'NONE', #110, 4.200000000000001954 ) ;
#190 = AXIS2_PLACEMENT_3D ( 'NONE', #100, #151, #166 ) ;
#191 = DIRECTION ( 'NONE',  ( 1.000000000000000000, -4.259385939352627576E-17, -1.112428321272187978E-17 ) ) ;
#192 = DIRECTION ( 'NONE',  ( -2.478176394252580648E-16, -1.665334536937733332E-16, -1.000000000000000000 ) ) ;
#193 = VERTEX_POINT ( 'NONE', #22 ) ;
#194 = EDGE_CURVE ( 'NONE', #19, #42, #149, .T. ) ;
#195 = DIRECTION ( 'NONE',  ( 1.000000000000000000, -4.259385939352627576E-17, -1.112428321272187978E-17 ) ) ;
#196 =( NAMED_UNIT ( * ) PLANE_ANGLE_UNIT ( ) SI_UNIT ( $, .RADIAN. ) );
#197 = DIRECTION ( 'NONE',  ( -1.000000000000000000, 4.259385939352631274E-17, 1.960049020799458264E-16 ) ) ;
#198 = PRODUCT_DEFINITION_SHAPE ( 'NONE', 'NONE',  #93 ) ;
#199 = VECTOR ( 'NONE', #71, 1000.000000000000000 ) ;
#200 = SURFACE_STYLE_USAGE ( .BOTH. , #90 ) ;
#201 = DIRECTION ( 'NONE',  ( -2.013518320330221746E-16, -1.665334536937733332E-16, -1.000000000000000000 ) ) ;
#202 = STYLED_ITEM ( 'NONE', ( #76 ), #206 ) ;
#203 = SHAPE_DEFINITION_REPRESENTATION ( #198, #206 ) ;
#204 = EDGE_LOOP ( 'NONE', ( #18, #147, #159, #30 ) ) ;
#205 = MANIFOLD_SOLID_BREP ( 'Rotation1', #34 ) ;
#206 = ADVANCED_BREP_SHAPE_REPRESENTATION ( 'Z00.405.008.000', ( #205, #127 ), #80 ) ;
#207 = AXIS2_PLACEMENT_3D ( 'NONE', #31, #50, #192 ) ;
#208 = UNCERTAINTY_MEASURE_WITH_UNIT (LENGTH_MEASURE( 1.000000000000000082E-05 ), #108, 'distance_accuracy_value', 'NONE');
#209 = FACE_OUTER_BOUND ( 'NONE', #16, .T. ) ;
#210 = ORIENTED_EDGE ( 'NONE', *, *, #55, .F. ) ;
#211 = CIRCLE ( 'NONE', #77, 4.200000000000001066 ) ;
#212 = DIRECTION ( 'NONE',  ( 1.000000000000000000, -4.259385939352627576E-17, -1.112428321272187978E-17 ) ) ;
#213 = EDGE_CURVE ( 'NONE', #186, #12, #37, .T. ) ;
#214 = DIRECTION ( 'NONE',  ( -1.960049020799458264E-16, -1.665334536937734071E-16, -1.000000000000000000 ) ) ;
ENDSEC;
END-ISO-10303-21;
