ISO-10303-21;
HEADER;
FILE_DESCRIPTION (( 'STEP AP214' ),
    '1' );
FILE_NAME ('Z00.405.010.000.STEP',
    '2024-06-19T10:27:37',
    ( '' ),
    ( '' ),
    'SwSTEP 2.0',
    'SolidWorks 2022',
    '' );
FILE_SCHEMA (( 'AUTOMOTIVE_DESIGN' ));
ENDSEC;

DATA;
#1 = CARTESIAN_POINT ( 'NONE',  ( -0.6999999999999989564, 1.387778780781445676E-14, -5.250000000000001776 ) ) ;
#2 = CIRCLE ( 'NONE', #54, 5.249999999999998224 ) ;
#3 = FACE_BOUND ( 'NONE', #76, .T. ) ;
#4 = ORIENTED_EDGE ( 'NONE', *, *, #88, .T. ) ;
#5 = UNCERTAINTY_MEASURE_WITH_UNIT (LENGTH_MEASURE( 1.000000000000000082E-05 ), #164, 'distance_accuracy_value', 'NONE');
#6 = DIRECTION ( 'NONE',  ( -5.775242064348982448E-17, 0.000000000000000000, 1.000000000000000000 ) ) ;
#7 = EDGE_CURVE ( 'NONE', #212, #102, #124, .T. ) ;
#8 = AXIS2_PLACEMENT_3D ( 'NONE', #195, #44, #196 ) ;
#9 = ORIENTED_EDGE ( 'NONE', *, *, #47, .T. ) ;
#10 = DIRECTION ( 'NONE',  ( 1.000000000000000000, -4.116626217457494562E-17, -3.702524192079764128E-17 ) ) ;
#11 = DIRECTION ( 'NONE',  ( 1.000000000000000000, -4.116626217457494562E-17, -3.702524192079764128E-17 ) ) ;
#12 = CARTESIAN_POINT ( 'NONE',  ( -0.7000000000000061728, 1.387778780781445676E-14, 0.000000000000000000 ) ) ;
#13 = AXIS2_PLACEMENT_3D ( 'NONE', #193, #42, #89 ) ;
#14 = SURFACE_STYLE_USAGE ( .BOTH. , #118 ) ;
#15 = ADVANCED_FACE ( 'NONE', ( #41 ), #149, .F. ) ;
#16 = VECTOR ( 'NONE', #199, 1000.000000000000000 ) ;
#17 = VERTEX_POINT ( 'NONE', #56 ) ;
#18 = CIRCLE ( 'NONE', #83, 8.499999999999996447 ) ;
#19 = SURFACE_SIDE_STYLE ('',( #173 ) ) ;
#20 = UNCERTAINTY_MEASURE_WITH_UNIT (LENGTH_MEASURE( 1.000000000000000082E-05 ), #114, 'distance_accuracy_value', 'NONE');
#21 = FACE_OUTER_BOUND ( 'NONE', #174, .T. ) ;
#22 = DIRECTION ( 'NONE',  ( 1.000000000000000000, -4.116626217457494562E-17, -3.702524192079764128E-17 ) ) ;
#23 = ADVANCED_FACE ( 'NONE', ( #3, #21 ), #160, .T. ) ;
#24 = EDGE_LOOP ( 'NONE', ( #169, #91, #145, #171 ) ) ;
#25 = VERTEX_POINT ( 'NONE', #87 ) ;
#26 = STYLED_ITEM ( 'NONE', ( #151 ), #150 ) ;
#27 = CARTESIAN_POINT ( 'NONE',  ( -0.7000000000000061728, 1.387778780781445676E-14, 0.000000000000000000 ) ) ;
#28 = COLOUR_RGB ( '',0.6862745098039215730, 0.6078431372549019107, 0.5294117647058823595 ) ;
#29 = FACE_OUTER_BOUND ( 'NONE', #58, .T. ) ;
#30 = FILL_AREA_STYLE ('',( #211 ) ) ;
#31 = DIRECTION ( 'NONE',  ( 1.000000000000000000, -4.116626217457494562E-17, -3.702524192079764128E-17 ) ) ;
#32 = AXIS2_PLACEMENT_3D ( 'NONE', #12, #10, #81 ) ;
#33 = STYLED_ITEM ( 'NONE', ( #140 ), #130 ) ;
#34 = DIRECTION ( 'NONE',  ( 0.000000000000000000, 0.000000000000000000, 1.000000000000000000 ) ) ;
#35 = VERTEX_POINT ( 'NONE', #180 ) ;
#36 = AXIS2_PLACEMENT_3D ( 'NONE', #183, #31, #62 ) ;
#37 = ORIENTED_EDGE ( 'NONE', *, *, #154, .F. ) ;
#38 = PRESENTATION_LAYER_ASSIGNMENT (  '', '', ( #26 ) ) ;
#39 = DIRECTION ( 'NONE',  ( 0.000000000000000000, 0.000000000000000000, -1.000000000000000000 ) ) ;
#40 = LINE ( 'NONE', #86, #152 ) ;
#41 = FACE_OUTER_BOUND ( 'NONE', #186, .T. ) ;
#42 = DIRECTION ( 'NONE',  ( 1.000000000000000000, -4.116626217457494562E-17, -3.702524192079764128E-17 ) ) ;
#43 = DIRECTION ( 'NONE',  ( 1.000000000000000000, -4.116626217457493946E-17, 5.775242064348982448E-17 ) ) ;
#44 = DIRECTION ( 'NONE',  ( 1.000000000000000000, -4.116626217457494562E-17, -3.702524192079764128E-17 ) ) ;
#45 =( NAMED_UNIT ( * ) PLANE_ANGLE_UNIT ( ) SI_UNIT ( $, .RADIAN. ) );
#46 = DIRECTION ( 'NONE',  ( 1.000000000000000000, -4.116626217457494562E-17, -3.702524192079764128E-17 ) ) ;
#47 = EDGE_CURVE ( 'NONE', #102, #25, #18, .T. ) ;
#48 = ORIENTED_EDGE ( 'NONE', *, *, #110, .F. ) ;
#49 = SHAPE_DEFINITION_REPRESENTATION ( #172, #130 ) ;
#50 = MECHANICAL_DESIGN_GEOMETRIC_PRESENTATION_REPRESENTATION (  '', ( #33 ), #133 ) ;
#51 = APPLICATION_PROTOCOL_DEFINITION ( 'draft international standard', 'automotive_design', 1998, #68 ) ;
#52 = EDGE_LOOP ( 'NONE', ( #9, #60 ) ) ;
#53 =( LENGTH_UNIT ( ) NAMED_UNIT ( * ) SI_UNIT ( .MILLI., .METRE. ) );
#54 = AXIS2_PLACEMENT_3D ( 'NONE', #153, #46, #116 ) ;
#55 = EDGE_LOOP ( 'NONE', ( #69, #204 ) ) ;
#56 = CARTESIAN_POINT ( 'NONE',  ( -0.6999999999999990674, 1.483181036569635260E-14, 5.249999999999995559 ) ) ;
#57 = ADVANCED_FACE ( 'NONE', ( #194, #179 ), #74, .T. ) ;
#58 = EDGE_LOOP ( 'NONE', ( #65, #135, #4, #192 ) ) ;
#59 = FACE_OUTER_BOUND ( 'NONE', #188, .T. ) ;
#60 = ORIENTED_EDGE ( 'NONE', *, *, #64, .T. ) ;
#61 = ADVANCED_FACE ( 'NONE', ( #59 ), #128, .T. ) ;
#62 = DIRECTION ( 'NONE',  ( 0.000000000000000000, 0.000000000000000000, -1.000000000000000000 ) ) ;
#63 =( NAMED_UNIT ( * ) SI_UNIT ( $, .STERADIAN. ) SOLID_ANGLE_UNIT ( ) );
#64 = EDGE_CURVE ( 'NONE', #25, #102, #108, .T. ) ;
#65 = ORIENTED_EDGE ( 'NONE', *, *, #70, .F. ) ;
#66 = PRODUCT ( 'Z00.405.010.000', 'Z00.405.010.000', '', ( #170 ) ) ;
#67 = CIRCLE ( 'NONE', #162, 8.499999999999996447 ) ;
#68 = APPLICATION_CONTEXT ( 'automotive_design' ) ;
#69 = ORIENTED_EDGE ( 'NONE', *, *, #121, .F. ) ;
#70 = EDGE_CURVE ( 'NONE', #17, #206, #40, .T. ) ;
#71 = CARTESIAN_POINT ( 'NONE',  ( 0.000000000000000000, 0.000000000000000000, 0.000000000000000000 ) ) ;
#72 = CARTESIAN_POINT ( 'NONE',  ( 7.206746031746039449, 1.387778780781445676E-14, -5.250000000000000000 ) ) ;
#73 = CIRCLE ( 'NONE', #137, 5.249999999999998224 ) ;
#74 = PLANE ( 'NONE',  #198 ) ;
#75 = DIRECTION ( 'NONE',  ( 1.020425574104004615E-16, 0.000000000000000000, -1.000000000000000000 ) ) ;
#76 = EDGE_LOOP ( 'NONE', ( #142, #161 ) ) ;
#77 = VERTEX_POINT ( 'NONE', #157 ) ;
#78 = CYLINDRICAL_SURFACE ( 'NONE', #8, 8.499999999999996447 ) ;
#79 = CLOSED_SHELL ( 'NONE', ( #61, #15, #155, #23, #119, #57 ) ) ;
#80 = DIRECTION ( 'NONE',  ( 5.775242064348983681E-17, 0.000000000000000000, -1.000000000000000000 ) ) ;
#81 = DIRECTION ( 'NONE',  ( 6.377659838150028693E-17, 0.000000000000000000, -1.000000000000000000 ) ) ;
#82 = FACE_OUTER_BOUND ( 'NONE', #24, .T. ) ;
#83 = AXIS2_PLACEMENT_3D ( 'NONE', #126, #109, #178 ) ;
#84 = SURFACE_STYLE_USAGE ( .BOTH. , #19 ) ;
#85 = VERTEX_POINT ( 'NONE', #1 ) ;
#86 = CARTESIAN_POINT ( 'NONE',  ( 7.206746031746039449, 1.452072737736681628E-14, 5.249999999999996447 ) ) ;
#87 = CARTESIAN_POINT ( 'NONE',  ( 3.147145563267805795E-16, 1.522982057541925130E-14, 8.499999999999998224 ) ) ;
#88 = EDGE_CURVE ( 'NONE', #85, #77, #144, .T. ) ;
#89 = DIRECTION ( 'NONE',  ( 5.775242064348984914E-17, 0.000000000000000000, -1.000000000000000000 ) ) ;
#90 = UNCERTAINTY_MEASURE_WITH_UNIT (LENGTH_MEASURE( 1.000000000000000082E-05 ), #53, 'distance_accuracy_value', 'NONE');
#91 = ORIENTED_EDGE ( 'NONE', *, *, #110, .T. ) ;
#92 = ORIENTED_EDGE ( 'NONE', *, *, #96, .T. ) ;
#93 = AXIS2_PLACEMENT_3D ( 'NONE', #208, #129, #6 ) ;
#94 =( NAMED_UNIT ( * ) PLANE_ANGLE_UNIT ( ) SI_UNIT ( $, .RADIAN. ) );
#95 = DIRECTION ( 'NONE',  ( 6.195440985631456550E-17, 0.000000000000000000, -1.000000000000000000 ) ) ;
#96 = EDGE_CURVE ( 'NONE', #206, #77, #73, .T. ) ;
#97 = CARTESIAN_POINT ( 'NONE',  ( -0.7000000000000056177, 1.387778780781445676E-14, -8.499999999999996447 ) ) ;
#98 = AXIS2_PLACEMENT_3D ( 'NONE', #100, #182, #95 ) ;
#99 = LINE ( 'NONE', #115, #16 ) ;
#100 = CARTESIAN_POINT ( 'NONE',  ( -0.6999999999999992895, 1.387778780781445676E-14, -3.469446951953614189E-15 ) ) ;
#101 = AXIS2_PLACEMENT_3D ( 'NONE', #176, #190, #39 ) ;
#102 = VERTEX_POINT ( 'NONE', #197 ) ;
#103 = EDGE_CURVE ( 'NONE', #85, #17, #189, .T. ) ;
#104 = FILL_AREA_STYLE ('',( #134 ) ) ;
#105 = ORIENTED_EDGE ( 'NONE', *, *, #207, .T. ) ;
#106 = PRODUCT_DEFINITION_CONTEXT ( 'detailed design', #68, 'design' ) ;
#107 = CARTESIAN_POINT ( 'NONE',  ( 0.000000000000000000, 0.000000000000000000, 0.000000000000000000 ) ) ;
#108 = CIRCLE ( 'NONE', #13, 8.499999999999996447 ) ;
#109 = DIRECTION ( 'NONE',  ( 1.000000000000000000, -4.116626217457494562E-17, -3.702524192079764128E-17 ) ) ;
#110 = EDGE_CURVE ( 'NONE', #35, #212, #210, .T. ) ;
#111 = DIRECTION ( 'NONE',  ( 1.000000000000000000, -4.116626217457494562E-17, -3.702524192079764128E-17 ) ) ;
#112 = DIRECTION ( 'NONE',  ( 5.775242064348982448E-17, 0.000000000000000000, -1.000000000000000000 ) ) ;
#113 = VECTOR ( 'NONE', #22, 1000.000000000000000 ) ;
#114 =( LENGTH_UNIT ( ) NAMED_UNIT ( * ) SI_UNIT ( .MILLI., .METRE. ) );
#115 = CARTESIAN_POINT ( 'NONE',  ( 7.206746031746038561, 1.491873758708970867E-14, 8.499999999999994671 ) ) ;
#116 = DIRECTION ( 'NONE',  ( 6.195440985631456550E-17, 0.000000000000000000, -1.000000000000000000 ) ) ;
#117 = AXIS2_PLACEMENT_3D ( 'NONE', #132, #209, #80 ) ;
#118 = SURFACE_SIDE_STYLE ('',( #165 ) ) ;
#119 = ADVANCED_FACE ( 'NONE', ( #82 ), #78, .T. ) ;
#120 = ORIENTED_EDGE ( 'NONE', *, *, #70, .T. ) ;
#121 = EDGE_CURVE ( 'NONE', #77, #206, #205, .T. ) ;
#122 = ORIENTED_EDGE ( 'NONE', *, *, #207, .F. ) ;
#123 = APPLICATION_CONTEXT ( 'automotive_design' ) ;
#124 = LINE ( 'NONE', #177, #113 ) ;
#125 = CARTESIAN_POINT ( 'NONE',  ( 7.206746031746039449, 1.387778780781445676E-14, -1.734723475976807094E-15 ) ) ;
#126 = CARTESIAN_POINT ( 'NONE',  ( 0.000000000000000000, 0.000000000000000000, 0.000000000000000000 ) ) ;
#127 = AXIS2_PLACEMENT_3D ( 'NONE', #125, #191, #75 ) ;
#128 = CYLINDRICAL_SURFACE ( 'NONE', #127, 8.499999999999996447 ) ;
#129 = DIRECTION ( 'NONE',  ( -1.000000000000000000, 4.116626217457493946E-17, -5.775242064348982448E-17 ) ) ;
#130 = ADVANCED_BREP_SHAPE_REPRESENTATION ( 'Z00.405.010.000', ( #150, #148 ), #202 ) ;
#131 = DIRECTION ( 'NONE',  ( 5.775242064348983681E-17, 0.000000000000000000, -1.000000000000000000 ) ) ;
#132 = CARTESIAN_POINT ( 'NONE',  ( 0.000000000000000000, 0.000000000000000000, 0.000000000000000000 ) ) ;
#133 =( GEOMETRIC_REPRESENTATION_CONTEXT ( 3 ) GLOBAL_UNCERTAINTY_ASSIGNED_CONTEXT ( ( #90 ) ) GLOBAL_UNIT_ASSIGNED_CONTEXT ( ( #53, #185, #201 ) ) REPRESENTATION_CONTEXT ( 'NONE', 'WORKASPACE' ) );
#134 = FILL_AREA_STYLE_COLOUR ( '', #28 ) ;
#135 = ORIENTED_EDGE ( 'NONE', *, *, #103, .F. ) ;
#136 = PRODUCT_DEFINITION ( 'UNKNOWN', '', #138, #106 ) ;
#137 = AXIS2_PLACEMENT_3D ( 'NONE', #107, #159, #131 ) ;
#138 = PRODUCT_DEFINITION_FORMATION_WITH_SPECIFIED_SOURCE ( 'ANY', '', #66, .NOT_KNOWN. ) ;
#139 = MECHANICAL_DESIGN_GEOMETRIC_PRESENTATION_REPRESENTATION (  '', ( #26 ), #213 ) ;
#140 = PRESENTATION_STYLE_ASSIGNMENT (( #84 ) ) ;
#141 = DIRECTION ( 'NONE',  ( 1.000000000000000000, 0.000000000000000000, 0.000000000000000000 ) ) ;
#142 = ORIENTED_EDGE ( 'NONE', *, *, #103, .T. ) ;
#143 = VECTOR ( 'NONE', #111, 1000.000000000000000 ) ;
#144 = LINE ( 'NONE', #72, #143 ) ;
#145 = ORIENTED_EDGE ( 'NONE', *, *, #7, .T. ) ;
#146 = CARTESIAN_POINT ( 'NONE',  ( 0.000000000000000000, 5.249999999999997335, -1.734723475976807094E-15 ) ) ;
#147 = COLOUR_RGB ( '',0.6862745098039215730, 0.6078431372549019107, 0.5294117647058823595 ) ;
#148 = AXIS2_PLACEMENT_3D ( 'NONE', #71, #34, #141 ) ;
#149 = CYLINDRICAL_SURFACE ( 'NONE', #101, 5.249999999999998224 ) ;
#150 = MANIFOLD_SOLID_BREP ( 'Rotation1', #79 ) ;
#151 = PRESENTATION_STYLE_ASSIGNMENT (( #14 ) ) ;
#152 = VECTOR ( 'NONE', #203, 1000.000000000000000 ) ;
#153 = CARTESIAN_POINT ( 'NONE',  ( -0.6999999999999992895, 1.387778780781445676E-14, -3.469446951953614189E-15 ) ) ;
#154 = EDGE_CURVE ( 'NONE', #17, #85, #2, .T. ) ;
#155 = ADVANCED_FACE ( 'NONE', ( #29 ), #167, .F. ) ;
#156 = ORIENTED_EDGE ( 'NONE', *, *, #200, .T. ) ;
#157 = CARTESIAN_POINT ( 'NONE',  ( 3.032002083783215169E-16, 0.000000000000000000, -5.249999999999998224 ) ) ;
#158 = ORIENTED_EDGE ( 'NONE', *, *, #88, .F. ) ;
#159 = DIRECTION ( 'NONE',  ( 1.000000000000000000, -4.116626217457494562E-17, -3.702524192079764128E-17 ) ) ;
#160 = PLANE ( 'NONE',  #93 ) ;
#161 = ORIENTED_EDGE ( 'NONE', *, *, #154, .T. ) ;
#162 = AXIS2_PLACEMENT_3D ( 'NONE', #27, #11, #184 ) ;
#163 =( NAMED_UNIT ( * ) SI_UNIT ( $, .STERADIAN. ) SOLID_ANGLE_UNIT ( ) );
#164 =( LENGTH_UNIT ( ) NAMED_UNIT ( * ) SI_UNIT ( .MILLI., .METRE. ) );
#165 = SURFACE_STYLE_FILL_AREA ( #30 ) ;
#166 = PRESENTATION_LAYER_ASSIGNMENT (  '', '', ( #33 ) ) ;
#167 = CYLINDRICAL_SURFACE ( 'NONE', #36, 5.249999999999998224 ) ;
#168 = APPLICATION_PROTOCOL_DEFINITION ( 'draft international standard', 'automotive_design', 1998, #123 ) ;
#169 = ORIENTED_EDGE ( 'NONE', *, *, #200, .F. ) ;
#170 = PRODUCT_CONTEXT ( 'NONE', #123, 'mechanical' ) ;
#171 = ORIENTED_EDGE ( 'NONE', *, *, #64, .F. ) ;
#172 = PRODUCT_DEFINITION_SHAPE ( 'NONE', 'NONE',  #136 ) ;
#173 = SURFACE_STYLE_FILL_AREA ( #104 ) ;
#174 = EDGE_LOOP ( 'NONE', ( #122, #48 ) ) ;
#175 = PRODUCT_RELATED_PRODUCT_CATEGORY ( 'part', '', ( #66 ) ) ;
#176 = CARTESIAN_POINT ( 'NONE',  ( 7.206746031746039449, 1.387778780781445676E-14, -1.734723475976807094E-15 ) ) ;
#177 = CARTESIAN_POINT ( 'NONE',  ( 7.206746031746040337, 1.387778780781445676E-14, -8.499999999999998224 ) ) ;
#178 = DIRECTION ( 'NONE',  ( 5.775242064348984914E-17, 0.000000000000000000, -1.000000000000000000 ) ) ;
#179 = FACE_BOUND ( 'NONE', #55, .T. ) ;
#180 = CARTESIAN_POINT ( 'NONE',  ( -0.7000000000000058398, 1.522982057541924499E-14, 8.499999999999998224 ) ) ;
#181 = CARTESIAN_POINT ( 'NONE',  ( 1.943825200841881775E-16, 1.483181036569635892E-14, 5.249999999999999112 ) ) ;
#182 = DIRECTION ( 'NONE',  ( 1.000000000000000000, -4.116626217457494562E-17, -3.702524192079764128E-17 ) ) ;
#183 = CARTESIAN_POINT ( 'NONE',  ( 7.206746031746039449, 1.387778780781445676E-14, -1.734723475976807094E-15 ) ) ;
#184 = DIRECTION ( 'NONE',  ( 6.377659838150028693E-17, 0.000000000000000000, -1.000000000000000000 ) ) ;
#185 =( NAMED_UNIT ( * ) PLANE_ANGLE_UNIT ( ) SI_UNIT ( $, .RADIAN. ) );
#186 = EDGE_LOOP ( 'NONE', ( #37, #120, #92, #158 ) ) ;
#187 = ORIENTED_EDGE ( 'NONE', *, *, #47, .F. ) ;
#188 = EDGE_LOOP ( 'NONE', ( #105, #156, #187, #214 ) ) ;
#189 = CIRCLE ( 'NONE', #98, 5.249999999999998224 ) ;
#190 = DIRECTION ( 'NONE',  ( 1.000000000000000000, -4.116626217457494562E-17, -3.702524192079764128E-17 ) ) ;
#191 = DIRECTION ( 'NONE',  ( 1.000000000000000000, -4.116626217457494562E-17, -3.702524192079764128E-17 ) ) ;
#192 = ORIENTED_EDGE ( 'NONE', *, *, #121, .T. ) ;
#193 = CARTESIAN_POINT ( 'NONE',  ( 0.000000000000000000, 0.000000000000000000, 0.000000000000000000 ) ) ;
#194 = FACE_OUTER_BOUND ( 'NONE', #52, .T. ) ;
#195 = CARTESIAN_POINT ( 'NONE',  ( 7.206746031746039449, 1.387778780781445676E-14, -1.734723475976807094E-15 ) ) ;
#196 = DIRECTION ( 'NONE',  ( 1.020425574104004615E-16, 0.000000000000000000, -1.000000000000000000 ) ) ;
#197 = CARTESIAN_POINT ( 'NONE',  ( 4.908955754696634835E-16, 0.000000000000000000, -8.499999999999996447 ) ) ;
#198 = AXIS2_PLACEMENT_3D ( 'NONE', #146, #43, #112 ) ;
#199 = DIRECTION ( 'NONE',  ( 1.000000000000000000, -4.116626217457494562E-17, -3.702524192079764128E-17 ) ) ;
#200 = EDGE_CURVE ( 'NONE', #35, #25, #99, .T. ) ;
#201 =( NAMED_UNIT ( * ) SI_UNIT ( $, .STERADIAN. ) SOLID_ANGLE_UNIT ( ) );
#202 =( GEOMETRIC_REPRESENTATION_CONTEXT ( 3 ) GLOBAL_UNCERTAINTY_ASSIGNED_CONTEXT ( ( #5 ) ) GLOBAL_UNIT_ASSIGNED_CONTEXT ( ( #164, #94, #163 ) ) REPRESENTATION_CONTEXT ( 'NONE', 'WORKASPACE' ) );
#203 = DIRECTION ( 'NONE',  ( 1.000000000000000000, -4.116626217457494562E-17, -3.702524192079764128E-17 ) ) ;
#204 = ORIENTED_EDGE ( 'NONE', *, *, #96, .F. ) ;
#205 = CIRCLE ( 'NONE', #117, 5.249999999999998224 ) ;
#206 = VERTEX_POINT ( 'NONE', #181 ) ;
#207 = EDGE_CURVE ( 'NONE', #212, #35, #67, .T. ) ;
#208 = CARTESIAN_POINT ( 'NONE',  ( -0.6999999999999992895, 8.499999999999992895, 0.000000000000000000 ) ) ;
#209 = DIRECTION ( 'NONE',  ( 1.000000000000000000, -4.116626217457494562E-17, -3.702524192079764128E-17 ) ) ;
#210 = CIRCLE ( 'NONE', #32, 8.499999999999996447 ) ;
#211 = FILL_AREA_STYLE_COLOUR ( '', #147 ) ;
#212 = VERTEX_POINT ( 'NONE', #97 ) ;
#213 =( GEOMETRIC_REPRESENTATION_CONTEXT ( 3 ) GLOBAL_UNCERTAINTY_ASSIGNED_CONTEXT ( ( #20 ) ) GLOBAL_UNIT_ASSIGNED_CONTEXT ( ( #114, #45, #63 ) ) REPRESENTATION_CONTEXT ( 'NONE', 'WORKASPACE' ) );
#214 = ORIENTED_EDGE ( 'NONE', *, *, #7, .F. ) ;
ENDSEC;
END-ISO-10303-21;
