ISO-10303-21;
HEADER;
FILE_DESCRIPTION (( 'STEP AP214' ),
    '1' );
FILE_NAME ('Z00.405.012.000.STEP',
    '2024-06-19T09:35:47',
    ( '' ),
    ( '' ),
    'SwSTEP 2.0',
    'SolidWorks 2022',
    '' );
FILE_SCHEMA (( 'AUTOMOTIVE_DESIGN' ));
ENDSEC;

DATA;
#1 = UNCERTAINTY_MEASURE_WITH_UNIT (LENGTH_MEASURE( 1.000000000000000082E-05 ), #26, 'distance_accuracy_value', 'NONE');
#2 = LINE ( 'NONE', #199, #111 ) ;
#3 = CARTESIAN_POINT ( 'NONE',  ( 7.206746031746035897, 0.000000000000000000, 0.000000000000000000 ) ) ;
#4 = DIRECTION ( 'NONE',  ( 1.000000000000000000, -0.000000000000000000, -0.000000000000000000 ) ) ;
#5 = EDGE_CURVE ( 'NONE', #209, #212, #33, .T. ) ;
#6 = DIRECTION ( 'NONE',  ( 1.000000000000000000, -0.000000000000000000, -0.000000000000000000 ) ) ;
#7 = AXIS2_PLACEMENT_3D ( 'NONE', #37, #155, #123 ) ;
#8 =( GEOMETRIC_REPRESENTATION_CONTEXT ( 3 ) GLOBAL_UNCERTAINTY_ASSIGNED_CONTEXT ( ( #118 ) ) GLOBAL_UNIT_ASSIGNED_CONTEXT ( ( #28, #147, #129 ) ) REPRESENTATION_CONTEXT ( 'NONE', 'WORKASPACE' ) );
#9 = CYLINDRICAL_SURFACE ( 'NONE', #187, 6.499999999999999112 ) ;
#10 = EDGE_CURVE ( 'NONE', #46, #79, #164, .T. ) ;
#11 = AXIS2_PLACEMENT_3D ( 'NONE', #183, #64, #103 ) ;
#12 =( NAMED_UNIT ( * ) PLANE_ANGLE_UNIT ( ) SI_UNIT ( $, .RADIAN. ) );
#13 = STYLED_ITEM ( 'NONE', ( #197 ), #165 ) ;
#14 = CARTESIAN_POINT ( 'NONE',  ( 7.206746031746035897, 0.000000000000000000, 0.000000000000000000 ) ) ;
#15 = ADVANCED_FACE ( 'NONE', ( #121 ), #181, .T. ) ;
#16 = PRODUCT_DEFINITION_CONTEXT ( 'detailed design', #102, 'design' ) ;
#17 = ORIENTED_EDGE ( 'NONE', *, *, #113, .T. ) ;
#18 = ADVANCED_FACE ( 'NONE', ( #22, #149 ), #175, .T. ) ;
#19 = ORIENTED_EDGE ( 'NONE', *, *, #53, .F. ) ;
#20 = DIRECTION ( 'NONE',  ( 1.000000000000000000, -0.000000000000000000, -0.000000000000000000 ) ) ;
#21 = AXIS2_PLACEMENT_3D ( 'NONE', #3, #85, #169 ) ;
#22 = FACE_OUTER_BOUND ( 'NONE', #60, .T. ) ;
#23 = DIRECTION ( 'NONE',  ( 1.000000000000000000, -0.000000000000000000, -0.000000000000000000 ) ) ;
#24 = AXIS2_PLACEMENT_3D ( 'NONE', #203, #39, #157 ) ;
#25 = DIRECTION ( 'NONE',  ( 0.000000000000000000, 0.000000000000000000, -1.000000000000000000 ) ) ;
#26 =( LENGTH_UNIT ( ) NAMED_UNIT ( * ) SI_UNIT ( .MILLI., .METRE. ) );
#27 = VECTOR ( 'NONE', #50, 1000.000000000000000 ) ;
#28 =( LENGTH_UNIT ( ) NAMED_UNIT ( * ) SI_UNIT ( .MILLI., .METRE. ) );
#29 = DIRECTION ( 'NONE',  ( 1.000000000000000000, -0.000000000000000000, -0.000000000000000000 ) ) ;
#30 = MECHANICAL_DESIGN_GEOMETRIC_PRESENTATION_REPRESENTATION (  '', ( #190 ), #8 ) ;
#31 = EDGE_LOOP ( 'NONE', ( #152, #83, #210, #130 ) ) ;
#32 = VERTEX_POINT ( 'NONE', #214 ) ;
#33 = LINE ( 'NONE', #100, #189 ) ;
#34 = CARTESIAN_POINT ( 'NONE',  ( 7.206746031746035897, 0.000000000000000000, 0.000000000000000000 ) ) ;
#35 = CIRCLE ( 'NONE', #11, 10.49999999999999822 ) ;
#36 = EDGE_CURVE ( 'NONE', #192, #212, #66, .T. ) ;
#37 = CARTESIAN_POINT ( 'NONE',  ( 0.000000000000000000, 0.000000000000000000, 0.000000000000000000 ) ) ;
#38 = CARTESIAN_POINT ( 'NONE',  ( -8.673617379884035472E-16, 0.000000000000000000, 0.000000000000000000 ) ) ;
#39 = DIRECTION ( 'NONE',  ( 1.000000000000000000, -0.000000000000000000, -0.000000000000000000 ) ) ;
#40 = CYLINDRICAL_SURFACE ( 'NONE', #21, 10.49999999999999822 ) ;
#41 = SURFACE_STYLE_FILL_AREA ( #188 ) ;
#42 = SURFACE_STYLE_USAGE ( .BOTH. , #76 ) ;
#43 = PRODUCT_CONTEXT ( 'NONE', #51, 'mechanical' ) ;
#44 = PRODUCT_DEFINITION_FORMATION_WITH_SPECIFIED_SOURCE ( 'ANY', '', #176, .NOT_KNOWN. ) ;
#45 = EDGE_LOOP ( 'NONE', ( #178, #134 ) ) ;
#46 = VERTEX_POINT ( 'NONE', #107 ) ;
#47 = ADVANCED_BREP_SHAPE_REPRESENTATION ( 'Z00.405.012.000', ( #165, #88 ), #213 ) ;
#48 = ORIENTED_EDGE ( 'NONE', *, *, #58, .T. ) ;
#49 = ORIENTED_EDGE ( 'NONE', *, *, #74, .T. ) ;
#50 = DIRECTION ( 'NONE',  ( 1.000000000000000000, -0.000000000000000000, -0.000000000000000000 ) ) ;
#51 = APPLICATION_CONTEXT ( 'automotive_design' ) ;
#52 = CARTESIAN_POINT ( 'NONE',  ( -0.8999999999999998002, 0.000000000000000000, -10.49999999999999822 ) ) ;
#53 = EDGE_CURVE ( 'NONE', #209, #179, #73, .T. ) ;
#54 = FILL_AREA_STYLE_COLOUR ( '', #143 ) ;
#55 = CARTESIAN_POINT ( 'NONE',  ( -0.8999999999999998002, 0.000000000000000000, 0.000000000000000000 ) ) ;
#56 = AXIS2_PLACEMENT_3D ( 'NONE', #87, #6, #69 ) ;
#57 = CYLINDRICAL_SURFACE ( 'NONE', #194, 6.499999999999999112 ) ;
#58 = EDGE_CURVE ( 'NONE', #79, #32, #35, .T. ) ;
#59 = DIRECTION ( 'NONE',  ( 0.000000000000000000, 0.000000000000000000, -1.000000000000000000 ) ) ;
#60 = EDGE_LOOP ( 'NONE', ( #94, #48 ) ) ;
#61 = ORIENTED_EDGE ( 'NONE', *, *, #78, .F. ) ;
#62 = EDGE_LOOP ( 'NONE', ( #17, #195, #81, #162 ) ) ;
#63 = EDGE_CURVE ( 'NONE', #212, #192, #182, .T. ) ;
#64 = DIRECTION ( 'NONE',  ( 1.000000000000000000, -0.000000000000000000, -0.000000000000000000 ) ) ;
#65 = FACE_OUTER_BOUND ( 'NONE', #97, .T. ) ;
#66 = CIRCLE ( 'NONE', #7, 6.499999999999999112 ) ;
#67 = DIRECTION ( 'NONE',  ( 0.000000000000000000, 0.000000000000000000, -1.000000000000000000 ) ) ;
#68 = DIRECTION ( 'NONE',  ( -1.000000000000000000, 0.000000000000000000, 0.000000000000000000 ) ) ;
#69 = DIRECTION ( 'NONE',  ( 0.000000000000000000, 0.000000000000000000, -1.000000000000000000 ) ) ;
#70 = AXIS2_PLACEMENT_3D ( 'NONE', #141, #125, #25 ) ;
#71 = SHAPE_DEFINITION_REPRESENTATION ( #120, #47 ) ;
#72 = EDGE_CURVE ( 'NONE', #179, #209, #207, .T. ) ;
#73 = CIRCLE ( 'NONE', #70, 6.499999999999999112 ) ;
#74 = EDGE_CURVE ( 'NONE', #179, #192, #167, .T. ) ;
#75 = MECHANICAL_DESIGN_GEOMETRIC_PRESENTATION_REPRESENTATION (  '', ( #13 ), #137 ) ;
#76 = SURFACE_SIDE_STYLE ('',( #41 ) ) ;
#77 = CARTESIAN_POINT ( 'NONE',  ( 0.000000000000000000, 0.000000000000000000, 0.000000000000000000 ) ) ;
#78 = EDGE_CURVE ( 'NONE', #46, #161, #126, .T. ) ;
#79 = VERTEX_POINT ( 'NONE', #142 ) ;
#80 = ORIENTED_EDGE ( 'NONE', *, *, #36, .T. ) ;
#81 = ORIENTED_EDGE ( 'NONE', *, *, #180, .F. ) ;
#82 = AXIS2_PLACEMENT_3D ( 'NONE', #55, #23, #67 ) ;
#83 = ORIENTED_EDGE ( 'NONE', *, *, #78, .T. ) ;
#84 = SURFACE_STYLE_FILL_AREA ( #104 ) ;
#85 = DIRECTION ( 'NONE',  ( 1.000000000000000000, -0.000000000000000000, -0.000000000000000000 ) ) ;
#86 = ADVANCED_FACE ( 'NONE', ( #65 ), #57, .F. ) ;
#87 = CARTESIAN_POINT ( 'NONE',  ( -0.8999999999999998002, 0.000000000000000000, 0.000000000000000000 ) ) ;
#88 = AXIS2_PLACEMENT_3D ( 'NONE', #77, #148, #112 ) ;
#89 = CARTESIAN_POINT ( 'NONE',  ( 0.000000000000000000, 0.000000000000000000, 0.000000000000000000 ) ) ;
#90 = VECTOR ( 'NONE', #4, 1000.000000000000000 ) ;
#91 = AXIS2_PLACEMENT_3D ( 'NONE', #89, #122, #158 ) ;
#92 = CARTESIAN_POINT ( 'NONE',  ( -0.8999999999999998002, 0.000000000000000000, -6.499999999999999112 ) ) ;
#93 = UNCERTAINTY_MEASURE_WITH_UNIT (LENGTH_MEASURE( 1.000000000000000082E-05 ), #124, 'distance_accuracy_value', 'NONE');
#94 = ORIENTED_EDGE ( 'NONE', *, *, #180, .T. ) ;
#95 = CLOSED_SHELL ( 'NONE', ( #15, #86, #198, #108, #116, #18 ) ) ;
#96 = PRESENTATION_LAYER_ASSIGNMENT (  '', '', ( #190 ) ) ;
#97 = EDGE_LOOP ( 'NONE', ( #133, #49, #80, #177 ) ) ;
#98 = ORIENTED_EDGE ( 'NONE', *, *, #5, .T. ) ;
#99 = PRODUCT_DEFINITION ( 'UNKNOWN', '', #44, #16 ) ;
#100 = CARTESIAN_POINT ( 'NONE',  ( 7.206746031746035897, 0.000000000000000000, -6.499999999999999112 ) ) ;
#101 = DIRECTION ( 'NONE',  ( 1.000000000000000000, -0.000000000000000000, -0.000000000000000000 ) ) ;
#102 = APPLICATION_CONTEXT ( 'automotive_design' ) ;
#103 = DIRECTION ( 'NONE',  ( 0.000000000000000000, 0.000000000000000000, -1.000000000000000000 ) ) ;
#104 = FILL_AREA_STYLE ('',( #54 ) ) ;
#105 = CARTESIAN_POINT ( 'NONE',  ( -0.9000000000000002442, 10.49999999999999822, 0.000000000000000000 ) ) ;
#106 = CIRCLE ( 'NONE', #82, 10.49999999999999822 ) ;
#107 = CARTESIAN_POINT ( 'NONE',  ( -0.8999999999999998002, 1.285879139104720633E-15, 10.49999999999999822 ) ) ;
#108 = ADVANCED_FACE ( 'NONE', ( #170, #138 ), #127, .T. ) ;
#109 = DIRECTION ( 'NONE',  ( 0.000000000000000000, 0.000000000000000000, -1.000000000000000000 ) ) ;
#110 = CARTESIAN_POINT ( 'NONE',  ( -0.8999999999999998002, 7.960204194457794491E-16, 6.499999999999999112 ) ) ;
#111 = VECTOR ( 'NONE', #139, 1000.000000000000000 ) ;
#112 = DIRECTION ( 'NONE',  ( 1.000000000000000000, 0.000000000000000000, 0.000000000000000000 ) ) ;
#113 = EDGE_CURVE ( 'NONE', #161, #46, #106, .T. ) ;
#114 = ORIENTED_EDGE ( 'NONE', *, *, #113, .F. ) ;
#115 = AXIS2_PLACEMENT_3D ( 'NONE', #105, #68, #186 ) ;
#116 = ADVANCED_FACE ( 'NONE', ( #168 ), #40, .T. ) ;
#117 = EDGE_LOOP ( 'NONE', ( #119, #150 ) ) ;
#118 = UNCERTAINTY_MEASURE_WITH_UNIT (LENGTH_MEASURE( 1.000000000000000082E-05 ), #28, 'distance_accuracy_value', 'NONE');
#119 = ORIENTED_EDGE ( 'NONE', *, *, #53, .T. ) ;
#120 = PRODUCT_DEFINITION_SHAPE ( 'NONE', 'NONE',  #99 ) ;
#121 = FACE_OUTER_BOUND ( 'NONE', #62, .T. ) ;
#122 = DIRECTION ( 'NONE',  ( 1.000000000000000000, -0.000000000000000000, -0.000000000000000000 ) ) ;
#123 = DIRECTION ( 'NONE',  ( 0.000000000000000000, 0.000000000000000000, -1.000000000000000000 ) ) ;
#124 =( LENGTH_UNIT ( ) NAMED_UNIT ( * ) SI_UNIT ( .MILLI., .METRE. ) );
#125 = DIRECTION ( 'NONE',  ( 1.000000000000000000, -0.000000000000000000, -0.000000000000000000 ) ) ;
#126 = CIRCLE ( 'NONE', #24, 10.49999999999999822 ) ;
#127 = PLANE ( 'NONE',  #115 ) ;
#128 = CARTESIAN_POINT ( 'NONE',  ( 0.000000000000000000, 0.000000000000000000, -6.499999999999999112 ) ) ;
#129 =( NAMED_UNIT ( * ) SI_UNIT ( $, .STERADIAN. ) SOLID_ANGLE_UNIT ( ) );
#130 = ORIENTED_EDGE ( 'NONE', *, *, #58, .F. ) ;
#131 = AXIS2_PLACEMENT_3D ( 'NONE', #34, #101, #166 ) ;
#132 = PRESENTATION_LAYER_ASSIGNMENT (  '', '', ( #13 ) ) ;
#133 = ORIENTED_EDGE ( 'NONE', *, *, #72, .F. ) ;
#134 = ORIENTED_EDGE ( 'NONE', *, *, #36, .F. ) ;
#135 = SURFACE_STYLE_USAGE ( .BOTH. , #154 ) ;
#136 = AXIS2_PLACEMENT_3D ( 'NONE', #208, #191, #200 ) ;
#137 =( GEOMETRIC_REPRESENTATION_CONTEXT ( 3 ) GLOBAL_UNCERTAINTY_ASSIGNED_CONTEXT ( ( #93 ) ) GLOBAL_UNIT_ASSIGNED_CONTEXT ( ( #124, #184, #144 ) ) REPRESENTATION_CONTEXT ( 'NONE', 'WORKASPACE' ) );
#138 = FACE_OUTER_BOUND ( 'NONE', #153, .T. ) ;
#139 = DIRECTION ( 'NONE',  ( 1.000000000000000000, -0.000000000000000000, -0.000000000000000000 ) ) ;
#140 = EDGE_CURVE ( 'NONE', #161, #32, #2, .T. ) ;
#141 = CARTESIAN_POINT ( 'NONE',  ( -0.8999999999999998002, 0.000000000000000000, 0.000000000000000000 ) ) ;
#142 = CARTESIAN_POINT ( 'NONE',  ( -8.673617379884035472E-16, 1.285879139104720633E-15, 10.49999999999999822 ) ) ;
#143 = COLOUR_RGB ( '',0.6470588235294117974, 0.6196078431372549211, 0.5882352941176470784 ) ;
#144 =( NAMED_UNIT ( * ) SI_UNIT ( $, .STERADIAN. ) SOLID_ANGLE_UNIT ( ) );
#145 = CARTESIAN_POINT ( 'NONE',  ( 0.000000000000000000, 7.960204194457794491E-16, 6.499999999999999112 ) ) ;
#146 = AXIS2_PLACEMENT_3D ( 'NONE', #38, #205, #59 ) ;
#147 =( NAMED_UNIT ( * ) PLANE_ANGLE_UNIT ( ) SI_UNIT ( $, .RADIAN. ) );
#148 = DIRECTION ( 'NONE',  ( 0.000000000000000000, 0.000000000000000000, 1.000000000000000000 ) ) ;
#149 = FACE_BOUND ( 'NONE', #45, .T. ) ;
#150 = ORIENTED_EDGE ( 'NONE', *, *, #72, .T. ) ;
#151 = ORIENTED_EDGE ( 'NONE', *, *, #74, .F. ) ;
#152 = ORIENTED_EDGE ( 'NONE', *, *, #10, .F. ) ;
#153 = EDGE_LOOP ( 'NONE', ( #114, #61 ) ) ;
#154 = SURFACE_SIDE_STYLE ('',( #84 ) ) ;
#155 = DIRECTION ( 'NONE',  ( 1.000000000000000000, -0.000000000000000000, -0.000000000000000000 ) ) ;
#156 = DIRECTION ( 'NONE',  ( 1.000000000000000000, -0.000000000000000000, -0.000000000000000000 ) ) ;
#157 = DIRECTION ( 'NONE',  ( 0.000000000000000000, 0.000000000000000000, -1.000000000000000000 ) ) ;
#158 = DIRECTION ( 'NONE',  ( 0.000000000000000000, 0.000000000000000000, -1.000000000000000000 ) ) ;
#159 = APPLICATION_PROTOCOL_DEFINITION ( 'draft international standard', 'automotive_design', 1998, #102 ) ;
#160 = COLOUR_RGB ( '',0.6470588235294117974, 0.6196078431372549211, 0.5882352941176470784 ) ;
#161 = VERTEX_POINT ( 'NONE', #52 ) ;
#162 = ORIENTED_EDGE ( 'NONE', *, *, #140, .F. ) ;
#163 = EDGE_LOOP ( 'NONE', ( #151, #19, #98, #193 ) ) ;
#164 = LINE ( 'NONE', #196, #27 ) ;
#165 = MANIFOLD_SOLID_BREP ( 'Rotation1', #95 ) ;
#166 = DIRECTION ( 'NONE',  ( 0.000000000000000000, 0.000000000000000000, -1.000000000000000000 ) ) ;
#167 = LINE ( 'NONE', #185, #90 ) ;
#168 = FACE_OUTER_BOUND ( 'NONE', #31, .T. ) ;
#169 = DIRECTION ( 'NONE',  ( 0.000000000000000000, 0.000000000000000000, -1.000000000000000000 ) ) ;
#170 = FACE_BOUND ( 'NONE', #117, .T. ) ;
#171 =( NAMED_UNIT ( * ) SI_UNIT ( $, .STERADIAN. ) SOLID_ANGLE_UNIT ( ) );
#172 = FILL_AREA_STYLE_COLOUR ( '', #160 ) ;
#173 = PRESENTATION_STYLE_ASSIGNMENT (( #42 ) ) ;
#174 = APPLICATION_PROTOCOL_DEFINITION ( 'draft international standard', 'automotive_design', 1998, #51 ) ;
#175 = PLANE ( 'NONE',  #136 ) ;
#176 = PRODUCT ( 'Z00.405.012.000', 'Z00.405.012.000', '', ( #43 ) ) ;
#177 = ORIENTED_EDGE ( 'NONE', *, *, #5, .F. ) ;
#178 = ORIENTED_EDGE ( 'NONE', *, *, #63, .F. ) ;
#179 = VERTEX_POINT ( 'NONE', #110 ) ;
#180 = EDGE_CURVE ( 'NONE', #32, #79, #202, .T. ) ;
#181 = CYLINDRICAL_SURFACE ( 'NONE', #131, 10.49999999999999822 ) ;
#182 = CIRCLE ( 'NONE', #91, 6.499999999999999112 ) ;
#183 = CARTESIAN_POINT ( 'NONE',  ( -8.673617379884035472E-16, 0.000000000000000000, 0.000000000000000000 ) ) ;
#184 =( NAMED_UNIT ( * ) PLANE_ANGLE_UNIT ( ) SI_UNIT ( $, .RADIAN. ) );
#185 = CARTESIAN_POINT ( 'NONE',  ( 7.206746031746035897, 7.960204194457794491E-16, 6.499999999999999112 ) ) ;
#186 = DIRECTION ( 'NONE',  ( 0.000000000000000000, 0.000000000000000000, 1.000000000000000000 ) ) ;
#187 = AXIS2_PLACEMENT_3D ( 'NONE', #14, #29, #204 ) ;
#188 = FILL_AREA_STYLE ('',( #172 ) ) ;
#189 = VECTOR ( 'NONE', #20, 1000.000000000000000 ) ;
#190 = STYLED_ITEM ( 'NONE', ( #173 ), #47 ) ;
#191 = DIRECTION ( 'NONE',  ( 1.000000000000000000, 0.000000000000000000, -0.000000000000000000 ) ) ;
#192 = VERTEX_POINT ( 'NONE', #145 ) ;
#193 = ORIENTED_EDGE ( 'NONE', *, *, #63, .T. ) ;
#194 = AXIS2_PLACEMENT_3D ( 'NONE', #201, #156, #109 ) ;
#195 = ORIENTED_EDGE ( 'NONE', *, *, #10, .T. ) ;
#196 = CARTESIAN_POINT ( 'NONE',  ( 7.206746031746035897, 1.285879139104720633E-15, 10.49999999999999822 ) ) ;
#197 = PRESENTATION_STYLE_ASSIGNMENT (( #135 ) ) ;
#198 = ADVANCED_FACE ( 'NONE', ( #206 ), #9, .F. ) ;
#199 = CARTESIAN_POINT ( 'NONE',  ( 7.206746031746035897, 0.000000000000000000, -10.49999999999999822 ) ) ;
#200 = DIRECTION ( 'NONE',  ( -0.000000000000000000, 0.000000000000000000, -1.000000000000000000 ) ) ;
#201 = CARTESIAN_POINT ( 'NONE',  ( 7.206746031746035897, 0.000000000000000000, 0.000000000000000000 ) ) ;
#202 = CIRCLE ( 'NONE', #146, 10.49999999999999822 ) ;
#203 = CARTESIAN_POINT ( 'NONE',  ( -0.8999999999999998002, 0.000000000000000000, 0.000000000000000000 ) ) ;
#204 = DIRECTION ( 'NONE',  ( 0.000000000000000000, 0.000000000000000000, -1.000000000000000000 ) ) ;
#205 = DIRECTION ( 'NONE',  ( 1.000000000000000000, -0.000000000000000000, -0.000000000000000000 ) ) ;
#206 = FACE_OUTER_BOUND ( 'NONE', #163, .T. ) ;
#207 = CIRCLE ( 'NONE', #56, 6.499999999999999112 ) ;
#208 = CARTESIAN_POINT ( 'NONE',  ( -4.336808689942017736E-16, 6.499999999999999112, 0.000000000000000000 ) ) ;
#209 = VERTEX_POINT ( 'NONE', #92 ) ;
#210 = ORIENTED_EDGE ( 'NONE', *, *, #140, .T. ) ;
#211 = PRODUCT_RELATED_PRODUCT_CATEGORY ( 'part', '', ( #176 ) ) ;
#212 = VERTEX_POINT ( 'NONE', #128 ) ;
#213 =( GEOMETRIC_REPRESENTATION_CONTEXT ( 3 ) GLOBAL_UNCERTAINTY_ASSIGNED_CONTEXT ( ( #1 ) ) GLOBAL_UNIT_ASSIGNED_CONTEXT ( ( #26, #12, #171 ) ) REPRESENTATION_CONTEXT ( 'NONE', 'WORKASPACE' ) );
#214 = CARTESIAN_POINT ( 'NONE',  ( -8.673617379884035472E-16, 0.000000000000000000, -10.49999999999999822 ) ) ;
ENDSEC;
END-ISO-10303-21;
