ISO-10303-21;
HEADER;
FILE_DESCRIPTION (( 'STEP AP214' ),
    '1' );
FILE_NAME ('Z00.405.016.000.STEP',
    '2024-06-19T08:31:57',
    ( '' ),
    ( '' ),
    'SwSTEP 2.0',
    'SolidWorks 2022',
    '' );
FILE_SCHEMA (( 'AUTOMOTIVE_DESIGN' ));
ENDSEC;

DATA;
#1 = SHAPE_DEFINITION_REPRESENTATION ( #66, #56 ) ;
#2 = ORIENTED_EDGE ( 'NONE', *, *, #119, .T. ) ;
#3 = STYLED_ITEM ( 'NONE', ( #50 ), #104 ) ;
#4 = ORIENTED_EDGE ( 'NONE', *, *, #84, .T. ) ;
#5 = SURFACE_SIDE_STYLE ('',( #91 ) ) ;
#6 = DIRECTION ( 'NONE',  ( 1.968741186024066196E-16, -2.220446049250312095E-16, -1.000000000000000000 ) ) ;
#7 = EDGE_LOOP ( 'NONE', ( #8, #213, #57, #54 ) ) ;
#8 = ORIENTED_EDGE ( 'NONE', *, *, #65, .F. ) ;
#9 = DIRECTION ( 'NONE',  ( 2.040851148208007998E-16, -2.220446049250314560E-16, -1.000000000000000000 ) ) ;
#10 = DIRECTION ( 'NONE',  ( 2.040851148208007505E-16, -2.220446049250312095E-16, -1.000000000000000000 ) ) ;
#11 = CYLINDRICAL_SURFACE ( 'NONE', #199, 8.500000000000003553 ) ;
#12 = STYLED_ITEM ( 'NONE', ( #109 ), #56 ) ;
#13 = DIRECTION ( 'NONE',  ( 1.968741186024066196E-16, -2.220446049250312095E-16, -1.000000000000000000 ) ) ;
#14 = EDGE_CURVE ( 'NONE', #214, #95, #134, .T. ) ;
#15 = DIRECTION ( 'NONE',  ( 1.968741186024065949E-16, -2.220446049250312095E-16, -1.000000000000000000 ) ) ;
#16 = PRODUCT_CONTEXT ( 'NONE', #194, 'mechanical' ) ;
#17 = VERTEX_POINT ( 'NONE', #202 ) ;
#18 = AXIS2_PLACEMENT_3D ( 'NONE', #193, #52, #35 ) ;
#19 = ORIENTED_EDGE ( 'NONE', *, *, #79, .F. ) ;
#20 = PRODUCT_DEFINITION ( 'UNKNOWN', '', #81, #186 ) ;
#21 = CARTESIAN_POINT ( 'NONE',  ( 2.088616920224668935E-15, 2.957132180700487967E-15, 8.500000000000000000 ) ) ;
#22 = EDGE_LOOP ( 'NONE', ( #122, #98, #44, #2 ) ) ;
#23 = EDGE_LOOP ( 'NONE', ( #155, #4, #143, #163 ) ) ;
#24 = CLOSED_SHELL ( 'NONE', ( #127, #181, #154, #142, #173, #46 ) ) ;
#25 = EDGE_LOOP ( 'NONE', ( #206, #139 ) ) ;
#26 = LINE ( 'NONE', #200, #171 ) ;
#27 = PLANE ( 'NONE',  #94 ) ;
#28 = DIRECTION ( 'NONE',  ( 1.000000000000000000, -3.552998878918486142E-18, -2.457196376734882559E-16 ) ) ;
#29 = CARTESIAN_POINT ( 'NONE',  ( -2.761660063457908651E-15, 5.885461101838505607E-15, 17.00000000000000000 ) ) ;
#30 = COLOUR_RGB ( '',0.6470588235294117974, 0.6196078431372549211, 0.5882352941176470784 ) ;
#31 = AXIS2_PLACEMENT_3D ( 'NONE', #188, #203, #179 ) ;
#32 = DIRECTION ( 'NONE',  ( 1.000000000000000000, -3.552998878918486142E-18, -2.457196376734882559E-16 ) ) ;
#33 = SURFACE_STYLE_USAGE ( .BOTH. , #120 ) ;
#34 = LINE ( 'NONE', #192, #146 ) ;
#35 = DIRECTION ( 'NONE',  ( -1.968741186024065949E-16, 2.220446049250312095E-16, 1.000000000000000000 ) ) ;
#36 = DIRECTION ( 'NONE',  ( 1.000000000000000000, -3.552998878918486142E-18, -2.457196376734882559E-16 ) ) ;
#37 = MECHANICAL_DESIGN_GEOMETRIC_PRESENTATION_REPRESENTATION (  '', ( #12 ), #43 ) ;
#38 = ORIENTED_EDGE ( 'NONE', *, *, #158, .T. ) ;
#39 =( NAMED_UNIT ( * ) SI_UNIT ( $, .STERADIAN. ) SOLID_ANGLE_UNIT ( ) );
#40 = FACE_OUTER_BOUND ( 'NONE', #22, .T. ) ;
#41 = DIRECTION ( 'NONE',  ( 1.968741186024066196E-16, -2.220446049250312095E-16, -1.000000000000000000 ) ) ;
#42 = CARTESIAN_POINT ( 'NONE',  ( 7.206746031746035897, 0.000000000000000000, 0.000000000000000000 ) ) ;
#43 =( GEOMETRIC_REPRESENTATION_CONTEXT ( 3 ) GLOBAL_UNCERTAINTY_ASSIGNED_CONTEXT ( ( #121 ) ) GLOBAL_UNIT_ASSIGNED_CONTEXT ( ( #138, #51, #92 ) ) REPRESENTATION_CONTEXT ( 'NONE', 'WORKASPACE' ) );
#44 = ORIENTED_EDGE ( 'NONE', *, *, #61, .T. ) ;
#45 = UNCERTAINTY_MEASURE_WITH_UNIT (LENGTH_MEASURE( 1.000000000000000082E-05 ), #59, 'distance_accuracy_value', 'NONE');
#46 = ADVANCED_FACE ( 'NONE', ( #77, #130 ), #93, .T. ) ;
#47 = VERTEX_POINT ( 'NONE', #164 ) ;
#48 = SURFACE_STYLE_FILL_AREA ( #68 ) ;
#49 =( GEOMETRIC_REPRESENTATION_CONTEXT ( 3 ) GLOBAL_UNCERTAINTY_ASSIGNED_CONTEXT ( ( #45 ) ) GLOBAL_UNIT_ASSIGNED_CONTEXT ( ( #59, #131, #39 ) ) REPRESENTATION_CONTEXT ( 'NONE', 'WORKASPACE' ) );
#50 = PRESENTATION_STYLE_ASSIGNMENT (( #73 ) ) ;
#51 =( NAMED_UNIT ( * ) PLANE_ANGLE_UNIT ( ) SI_UNIT ( $, .RADIAN. ) );
#52 = DIRECTION ( 'NONE',  ( -1.000000000000000000, 3.552998878918387535E-18, -1.968741186024065949E-16 ) ) ;
#53 = CARTESIAN_POINT ( 'NONE',  ( -1.800000000000010036, -2.775557561562891351E-14, 0.000000000000000000 ) ) ;
#54 = ORIENTED_EDGE ( 'NONE', *, *, #61, .F. ) ;
#55 = COLOUR_RGB ( '',0.6470588235294117974, 0.6196078431372549211, 0.5882352941176470784 ) ;
#56 = ADVANCED_BREP_SHAPE_REPRESENTATION ( 'Z00.405.016.000', ( #104, #174 ), #49 ) ;
#57 = ORIENTED_EDGE ( 'NONE', *, *, #79, .T. ) ;
#58 = EDGE_CURVE ( 'NONE', #149, #147, #70, .T. ) ;
#59 =( LENGTH_UNIT ( ) NAMED_UNIT ( * ) SI_UNIT ( .MILLI., .METRE. ) );
#60 = AXIS2_PLACEMENT_3D ( 'NONE', #53, #128, #9 ) ;
#61 = EDGE_CURVE ( 'NONE', #214, #47, #160, .T. ) ;
#62 = DIRECTION ( 'NONE',  ( 1.000000000000000000, -3.552998878918387535E-18, 1.968741186024065949E-16 ) ) ;
#63 = FACE_OUTER_BOUND ( 'NONE', #23, .T. ) ;
#64 = ORIENTED_EDGE ( 'NONE', *, *, #58, .F. ) ;
#65 = EDGE_CURVE ( 'NONE', #95, #214, #107, .T. ) ;
#66 = PRODUCT_DEFINITION_SHAPE ( 'NONE', 'NONE',  #20 ) ;
#67 = ORIENTED_EDGE ( 'NONE', *, *, #84, .F. ) ;
#68 = FILL_AREA_STYLE ('',( #89 ) ) ;
#69 = VERTEX_POINT ( 'NONE', #21 ) ;
#70 = CIRCLE ( 'NONE', #31, 17.00000000000000711 ) ;
#71 = EDGE_CURVE ( 'NONE', #95, #69, #34, .T. ) ;
#72 = ORIENTED_EDGE ( 'NONE', *, *, #212, .F. ) ;
#73 = SURFACE_STYLE_USAGE ( .BOTH. , #5 ) ;
#74 = APPLICATION_PROTOCOL_DEFINITION ( 'draft international standard', 'automotive_design', 1998, #194 ) ;
#75 = MECHANICAL_DESIGN_GEOMETRIC_PRESENTATION_REPRESENTATION (  '', ( #3 ), #165 ) ;
#76 = FILL_AREA_STYLE ('',( #159 ) ) ;
#77 = FACE_BOUND ( 'NONE', #25, .T. ) ;
#78 = ORIENTED_EDGE ( 'NONE', *, *, #137, .T. ) ;
#79 = EDGE_CURVE ( 'NONE', #69, #47, #100, .T. ) ;
#80 = DIRECTION ( 'NONE',  ( 1.000000000000000000, -3.552998878918486142E-18, -2.457196376734882559E-16 ) ) ;
#81 = PRODUCT_DEFINITION_FORMATION_WITH_SPECIFIED_SOURCE ( 'ANY', '', #105, .NOT_KNOWN. ) ;
#82 = CYLINDRICAL_SURFACE ( 'NONE', #124, 8.500000000000003553 ) ;
#83 = DIRECTION ( 'NONE',  ( 1.000000000000000000, -3.552998878918486142E-18, -2.457196376734882559E-16 ) ) ;
#84 = EDGE_CURVE ( 'NONE', #147, #145, #114, .T. ) ;
#85 = CIRCLE ( 'NONE', #112, 17.00000000000000711 ) ;
#86 = FACE_OUTER_BOUND ( 'NONE', #204, .T. ) ;
#87 = FACE_BOUND ( 'NONE', #106, .T. ) ;
#88 = PRESENTATION_LAYER_ASSIGNMENT (  '', '', ( #3 ) ) ;
#89 = FILL_AREA_STYLE_COLOUR ( '', #55 ) ;
#90 = ORIENTED_EDGE ( 'NONE', *, *, #97, .T. ) ;
#91 = SURFACE_STYLE_FILL_AREA ( #76 ) ;
#92 =( NAMED_UNIT ( * ) SI_UNIT ( $, .STERADIAN. ) SOLID_ANGLE_UNIT ( ) );
#93 = PLANE ( 'NONE',  #18 ) ;
#94 = AXIS2_PLACEMENT_3D ( 'NONE', #167, #62, #15 ) ;
#95 = VERTEX_POINT ( 'NONE', #190 ) ;
#96 = ORIENTED_EDGE ( 'NONE', *, *, #137, .F. ) ;
#97 = EDGE_CURVE ( 'NONE', #149, #17, #26, .T. ) ;
#98 = ORIENTED_EDGE ( 'NONE', *, *, #14, .F. ) ;
#99 = DIRECTION ( 'NONE',  ( 2.040851148208007505E-16, -2.220446049250312095E-16, -1.000000000000000000 ) ) ;
#100 = CIRCLE ( 'NONE', #201, 8.500000000000003553 ) ;
#101 = CARTESIAN_POINT ( 'NONE',  ( 7.206746031746035897, 0.000000000000000000, 0.000000000000000000 ) ) ;
#102 = DIRECTION ( 'NONE',  ( 1.000000000000000000, -3.552998878918486142E-18, -2.457196376734882559E-16 ) ) ;
#103 = VECTOR ( 'NONE', #180, 1000.000000000000000 ) ;
#104 = MANIFOLD_SOLID_BREP ( 'Rotation1', #24 ) ;
#105 = PRODUCT ( 'Z00.405.016.000', 'Z00.405.016.000', '', ( #16 ) ) ;
#106 = EDGE_LOOP ( 'NONE', ( #197, #19 ) ) ;
#107 = CIRCLE ( 'NONE', #60, 8.500000000000001776 ) ;
#108 = CARTESIAN_POINT ( 'NONE',  ( -1.800000000000010036, -2.775557561562891351E-14, 0.000000000000000000 ) ) ;
#109 = PRESENTATION_STYLE_ASSIGNMENT (( #33 ) ) ;
#110 = CARTESIAN_POINT ( 'NONE',  ( 0.000000000000000000, 0.000000000000000000, 0.000000000000000000 ) ) ;
#111 = CARTESIAN_POINT ( 'NONE',  ( 7.206746031746033232, 5.856657842276036856E-15, 17.00000000000000711 ) ) ;
#112 = AXIS2_PLACEMENT_3D ( 'NONE', #185, #28, #169 ) ;
#113 = ORIENTED_EDGE ( 'NONE', *, *, #212, .T. ) ;
#114 = LINE ( 'NONE', #111, #103 ) ;
#115 = DIRECTION ( 'NONE',  ( 2.040851148208007505E-16, -2.220446049250312095E-16, -1.000000000000000000 ) ) ;
#116 = DIRECTION ( 'NONE',  ( 1.000000000000000000, -3.552998878918486142E-18, -2.457196376734882559E-16 ) ) ;
#117 = CARTESIAN_POINT ( 'NONE',  ( -6.938893903907228378E-15, 0.000000000000000000, 0.000000000000000000 ) ) ;
#118 = CYLINDRICAL_SURFACE ( 'NONE', #178, 17.00000000000000711 ) ;
#119 = EDGE_CURVE ( 'NONE', #47, #69, #187, .T. ) ;
#120 = SURFACE_SIDE_STYLE ('',( #48 ) ) ;
#121 = UNCERTAINTY_MEASURE_WITH_UNIT (LENGTH_MEASURE( 1.000000000000000082E-05 ), #138, 'distance_accuracy_value', 'NONE');
#122 = ORIENTED_EDGE ( 'NONE', *, *, #71, .F. ) ;
#123 = APPLICATION_CONTEXT ( 'automotive_design' ) ;
#124 = AXIS2_PLACEMENT_3D ( 'NONE', #153, #135, #10 ) ;
#125 = AXIS2_PLACEMENT_3D ( 'NONE', #176, #196, #41 ) ;
#126 = DIRECTION ( 'NONE',  ( 2.040851148208007998E-16, -2.220446049250314560E-16, -1.000000000000000000 ) ) ;
#127 = ADVANCED_FACE ( 'NONE', ( #63 ), #118, .T. ) ;
#128 = DIRECTION ( 'NONE',  ( 1.000000000000000000, -3.552998878918486142E-18, -2.457196376734882559E-16 ) ) ;
#129 = AXIS2_PLACEMENT_3D ( 'NONE', #151, #83, #133 ) ;
#130 = FACE_OUTER_BOUND ( 'NONE', #170, .T. ) ;
#131 =( NAMED_UNIT ( * ) PLANE_ANGLE_UNIT ( ) SI_UNIT ( $, .RADIAN. ) );
#132 = PRODUCT_RELATED_PRODUCT_CATEGORY ( 'part', '', ( #105 ) ) ;
#133 = DIRECTION ( 'NONE',  ( 1.913297951445007129E-16, -2.220446049250314067E-16, -1.000000000000000000 ) ) ;
#134 = CIRCLE ( 'NONE', #189, 8.500000000000001776 ) ;
#135 = DIRECTION ( 'NONE',  ( 1.000000000000000000, -3.552998878918486142E-18, -2.457196376734882559E-16 ) ) ;
#136 = DIRECTION ( 'NONE',  ( 1.000000000000000000, -3.552998878918486142E-18, -2.457196376734882559E-16 ) ) ;
#137 = EDGE_CURVE ( 'NONE', #147, #149, #182, .T. ) ;
#138 =( LENGTH_UNIT ( ) NAMED_UNIT ( * ) SI_UNIT ( .MILLI., .METRE. ) );
#139 = ORIENTED_EDGE ( 'NONE', *, *, #65, .T. ) ;
#140 = EDGE_LOOP ( 'NONE', ( #38, #113 ) ) ;
#141 = PRESENTATION_LAYER_ASSIGNMENT (  '', '', ( #12 ) ) ;
#142 = ADVANCED_FACE ( 'NONE', ( #184, #87 ), #27, .T. ) ;
#143 = ORIENTED_EDGE ( 'NONE', *, *, #158, .F. ) ;
#144 = APPLICATION_PROTOCOL_DEFINITION ( 'draft international standard', 'automotive_design', 1998, #123 ) ;
#145 = VERTEX_POINT ( 'NONE', #29 ) ;
#146 = VECTOR ( 'NONE', #177, 1000.000000000000000 ) ;
#147 = VERTEX_POINT ( 'NONE', #195 ) ;
#148 = DIRECTION ( 'NONE',  ( 1.000000000000000000, -3.552998878918486142E-18, -2.457196376734882559E-16 ) ) ;
#149 = VERTEX_POINT ( 'NONE', #168 ) ;
#150 = CARTESIAN_POINT ( 'NONE',  ( -1.800000000000008260, -2.964295475749167963E-14, -8.500000000000001776 ) ) ;
#151 = CARTESIAN_POINT ( 'NONE',  ( -1.800000000000010036, -2.775557561562891351E-14, 0.000000000000000000 ) ) ;
#152 = DIRECTION ( 'NONE',  ( 1.000000000000000000, -3.552998878918486142E-18, -2.457196376734882559E-16 ) ) ;
#153 = CARTESIAN_POINT ( 'NONE',  ( 7.206746031746035897, 0.000000000000000000, 0.000000000000000000 ) ) ;
#154 = ADVANCED_FACE ( 'NONE', ( #40 ), #82, .F. ) ;
#155 = ORIENTED_EDGE ( 'NONE', *, *, #58, .T. ) ;
#156 = UNCERTAINTY_MEASURE_WITH_UNIT (LENGTH_MEASURE( 1.000000000000000082E-05 ), #191, 'distance_accuracy_value', 'NONE');
#157 = AXIS2_PLACEMENT_3D ( 'NONE', #101, #152, #99 ) ;
#158 = EDGE_CURVE ( 'NONE', #17, #145, #205, .T. ) ;
#159 = FILL_AREA_STYLE_COLOUR ( '', #30 ) ;
#160 = LINE ( 'NONE', #175, #162 ) ;
#161 = DIRECTION ( 'NONE',  ( 0.000000000000000000, 0.000000000000000000, 1.000000000000000000 ) ) ;
#162 = VECTOR ( 'NONE', #32, 1000.000000000000000 ) ;
#163 = ORIENTED_EDGE ( 'NONE', *, *, #97, .F. ) ;
#164 = CARTESIAN_POINT ( 'NONE',  ( 1.673430008120456907E-15, -1.887379141862766119E-15, -8.500000000000003553 ) ) ;
#165 =( GEOMETRIC_REPRESENTATION_CONTEXT ( 3 ) GLOBAL_UNCERTAINTY_ASSIGNED_CONTEXT ( ( #156 ) ) GLOBAL_UNIT_ASSIGNED_CONTEXT ( ( #191, #209, #166 ) ) REPRESENTATION_CONTEXT ( 'NONE', 'WORKASPACE' ) );
#166 =( NAMED_UNIT ( * ) SI_UNIT ( $, .STERADIAN. ) SOLID_ANGLE_UNIT ( ) );
#167 = CARTESIAN_POINT ( 'NONE',  ( 0.000000000000000000, 8.499999999999992895, 1.214306433183764966E-14 ) ) ;
#168 = CARTESIAN_POINT ( 'NONE',  ( -1.800000000000006706, -3.153033389935445206E-14, -17.00000000000000711 ) ) ;
#169 = DIRECTION ( 'NONE',  ( 1.968741186024066196E-16, -2.220446049250312095E-16, -1.000000000000000000 ) ) ;
#170 = EDGE_LOOP ( 'NONE', ( #64, #96 ) ) ;
#171 = VECTOR ( 'NONE', #80, 1000.000000000000000 ) ;
#172 = CARTESIAN_POINT ( 'NONE',  ( 0.000000000000000000, 0.000000000000000000, 0.000000000000000000 ) ) ;
#173 = ADVANCED_FACE ( 'NONE', ( #86 ), #183, .T. ) ;
#174 = AXIS2_PLACEMENT_3D ( 'NONE', #172, #161, #198 ) ;
#175 = CARTESIAN_POINT ( 'NONE',  ( 7.206746031746037673, -1.887379141862766119E-15, -8.500000000000003553 ) ) ;
#176 = CARTESIAN_POINT ( 'NONE',  ( 0.000000000000000000, 0.000000000000000000, 0.000000000000000000 ) ) ;
#177 = DIRECTION ( 'NONE',  ( 1.000000000000000000, -3.552998878918486142E-18, -2.457196376734882559E-16 ) ) ;
#178 = AXIS2_PLACEMENT_3D ( 'NONE', #42, #102, #115 ) ;
#179 = DIRECTION ( 'NONE',  ( 1.913297951445007129E-16, -2.220446049250314067E-16, -1.000000000000000000 ) ) ;
#180 = DIRECTION ( 'NONE',  ( 1.000000000000000000, -3.552998878918486142E-18, -2.457196376734882559E-16 ) ) ;
#181 = ADVANCED_FACE ( 'NONE', ( #210 ), #11, .F. ) ;
#182 = CIRCLE ( 'NONE', #129, 17.00000000000000711 ) ;
#183 = CYLINDRICAL_SURFACE ( 'NONE', #157, 17.00000000000000711 ) ;
#184 = FACE_OUTER_BOUND ( 'NONE', #140, .T. ) ;
#185 = CARTESIAN_POINT ( 'NONE',  ( -6.938893903907228378E-15, 0.000000000000000000, 0.000000000000000000 ) ) ;
#186 = PRODUCT_DEFINITION_CONTEXT ( 'detailed design', #123, 'design' ) ;
#187 = CIRCLE ( 'NONE', #125, 8.500000000000003553 ) ;
#188 = CARTESIAN_POINT ( 'NONE',  ( -1.800000000000010036, -2.775557561562891351E-14, 0.000000000000000000 ) ) ;
#189 = AXIS2_PLACEMENT_3D ( 'NONE', #108, #148, #126 ) ;
#190 = CARTESIAN_POINT ( 'NONE',  ( -1.800000000000007816, 2.957132180700470218E-15, 8.499999999999998224 ) ) ;
#191 =( LENGTH_UNIT ( ) NAMED_UNIT ( * ) SI_UNIT ( .MILLI., .METRE. ) );
#192 = CARTESIAN_POINT ( 'NONE',  ( 7.206746031746035008, 2.928328921138018428E-15, 8.500000000000003553 ) ) ;
#193 = CARTESIAN_POINT ( 'NONE',  ( -1.800000000000023803, 17.00000000000000000, 1.734723475976807094E-15 ) ) ;
#194 = APPLICATION_CONTEXT ( 'automotive_design' ) ;
#195 = CARTESIAN_POINT ( 'NONE',  ( -1.800000000000005818, 5.885461101838498507E-15, 17.00000000000000000 ) ) ;
#196 = DIRECTION ( 'NONE',  ( 1.000000000000000000, -3.552998878918486142E-18, -2.457196376734882559E-16 ) ) ;
#197 = ORIENTED_EDGE ( 'NONE', *, *, #119, .F. ) ;
#198 = DIRECTION ( 'NONE',  ( 1.000000000000000000, 0.000000000000000000, 0.000000000000000000 ) ) ;
#199 = AXIS2_PLACEMENT_3D ( 'NONE', #207, #136, #211 ) ;
#200 = CARTESIAN_POINT ( 'NONE',  ( 7.206746031746039449, -3.774758283725532237E-15, -17.00000000000000711 ) ) ;
#201 = AXIS2_PLACEMENT_3D ( 'NONE', #110, #36, #6 ) ;
#202 = CARTESIAN_POINT ( 'NONE',  ( -3.592033887666314563E-15, -3.774758283725532237E-15, -17.00000000000000711 ) ) ;
#203 = DIRECTION ( 'NONE',  ( 1.000000000000000000, -3.552998878918486142E-18, -2.457196376734882559E-16 ) ) ;
#204 = EDGE_LOOP ( 'NONE', ( #67, #78, #90, #72 ) ) ;
#205 = CIRCLE ( 'NONE', #208, 17.00000000000000711 ) ;
#206 = ORIENTED_EDGE ( 'NONE', *, *, #14, .T. ) ;
#207 = CARTESIAN_POINT ( 'NONE',  ( 7.206746031746035897, 0.000000000000000000, 0.000000000000000000 ) ) ;
#208 = AXIS2_PLACEMENT_3D ( 'NONE', #117, #116, #13 ) ;
#209 =( NAMED_UNIT ( * ) PLANE_ANGLE_UNIT ( ) SI_UNIT ( $, .RADIAN. ) );
#210 = FACE_OUTER_BOUND ( 'NONE', #7, .T. ) ;
#211 = DIRECTION ( 'NONE',  ( 2.040851148208007505E-16, -2.220446049250312095E-16, -1.000000000000000000 ) ) ;
#212 = EDGE_CURVE ( 'NONE', #145, #17, #85, .T. ) ;
#213 = ORIENTED_EDGE ( 'NONE', *, *, #71, .T. ) ;
#214 = VERTEX_POINT ( 'NONE', #150 ) ;
ENDSEC;
END-ISO-10303-21;
